Acordes de Guitarra » C »Cornelio Vega Jr » Déjame (Tab)

Déjame
Cornelio Vega Jr

Letras, Acordes y Tabs para Guitarra, Bajo y Ukulele

  • e)-----------------------
    b)-----------------------
    g)-----------------------
    d)-----2---4---5---------
    a)--5--------------------
    e)-----------------------
    
    
    
    G                            D7
    Si te digo que te adoro corazón
                                  C
    Que fue tu voz la que me enamoró
                 Am             D7
    Y esa carita hermosa vida mía
    
    G                                D7
    Al mirar me llenas de bella ilucion
                                     C
    A este loco que ya cree en él amor
    
  • D#                       A#
    Si te digo que te adoro corazón
                               G#
    que fue tu voz la que me enamoro
                            A#
    y esa carita hermosa vida mía
    
      D#m                       A#
    Al mirarme llenas de bella ilusión
                                 G#
    a este loco que ya cree en el amor
                             A#
    pero tu tienes novio todavía
    
       Cm
    Confirmo que me gustas tanto
                    A#
    y doy lo que fuera por estar contigo
        G#
    confirmo que me enamoraste desde que te vi
    
  • e -2/3--2--0--2--0--2-------2-2-2-----7--5--3--2--2--0--2--0--2/3--2
    B -3/5--3--0--3--0--3-------3-3-3-----8--7--5--3--3--0--3--0--3/5--3
    G ------------------------------------------------------------------
    D ------------------------------------------------------------------
    A ------------------------------------------------------------------
    E ------------------------------------------------------------------
    
    
    e-2-2-2----------------------3-3-3---2--2--0--2--0--2/3--2-----
    B-3-3-3----1-1-0-1-0-1/3-1---5-5-5---3--3--0--3--0--3/5--3-----
    G--------------------------------------------------------------
    D--------------------------------------------------------------
    A--------------------------------------------------------------
    E--------------------------------------------------------------
    
    
    e -2/3--2--0--2--0--2-------2-2-2-----7--5--3--2--2--0--2--0--2/3--2
    B -3/5--3--0--3--0--3-------3-3-3-----8--7--5--3--3--0--3--0--3/5--3
    G ------------------------------------------------------------------
    D ------------------------------------------------------------------
    
  • +
    ¡Colabora con nosotros!
    Envíanos tu versión de esta canción

Letra de Déjame
Si te digo que te adoro corazón
que fue tu voz la que me enamoro
y esa carita hermosa vida mía
Al mirarme llenas de bella ilusión
a este loco que ya cree en el amor
pero tu tienes novio todavía
Confirmo que me gustas tanto
y doy lo que fuera por estar contigo
confirmo que me enamoraste desde que te vi
mi plan no es ser tu amigo
Tengo una buena estrategia
para enamorarte y tenerte conmigo
no preguntes para que
si ya sabes muy bien cuales son los motivos
Déjame tocarte toda
y recorrer tu cuerpo besito a besito
déjame decirle al vato
como acariciarte si quieres le explico
Dile tu o yo se lo digo
que hacerte el amor es a lo que prosigo
dile que si quiere hablarlo
como hombre que soy aquí yo lo recibo
Dile que si quiere cuernos
yo se los consigo




[Déjame chords][Déjame cifra]
© LaCuerda.net · aviso legal · privacidad · es · en · pt · contacto
DINAMICO