Tablatura para Bajo de Coalo Zamorano: Vida Mía
Conexión · Inscripción
Letras y Acordes
Pantalla Completa
Imprimir
Versión Texto
Añadir Favorito
Otras Versiones

Mostrar Diagramas
Desfile Automático
Formato del Texto


Vida Mía(BAJ)

Coalo Zamorano

calidad:
czam0422
AUTOR: Coalo Zamorano
ALBUM: Mi Confianza está en tí (2009)
Enviado por Hector
Algo de lo que yo utilizo en esta transcripción, es:
U = ligadura
/ = slide
+v = Tensión de cuerda, estirar la cuerda pisando nota.

Intro Guitarra Electroacústica:
1 2 3 4, 1 2 3 4, 1 2 3 4, 1 2 3 4 y: (entra el bajo)

G:--------------------------9-11-9-11-9-11-11-11-9-11-:     (2)
D:-9-11-9-11-9-11-11-11-9-11--------------------------:-11:

Silencio y: Es tiempo hoy de dar alabanzas al que vive…

G:--------------------------9-11-9-11-9-11-11-11-9-11-:     (3)
D:-9-11-9-11-9-11-11-11-9-11--------------------------:-11:

Porque su fidelidad por siempre es…

G:--------------------------------:
D:-9-9-9-9---------7-7-7-7--------:
A:---------7-7-7-7----------------:
E:-----------------------------4-4:

Se repite desde: Es tiempo hoy de dar… hasta Porque su fidelidad por siempre…
Luego:
Vida mía hoy bendice al que es… Aquí entra con (slap o thum)combinado con
(pluck o pop)simple y doble.

G:--6------------------------------:----6-X-------------------------------:
D:---------4-X------7-X------6-X---:--------------4-X------7------6-6-----:
A:-4--2U4------------------------2-:-2/4----2U4---------------------------:
E:-------2-----4-4/5-----5-4-------:------------2-----4-4/5---5-4-----4-4-:

G:------------------------------------:--X------X-------:------------------:
D:------2-2U4---4-X-------7-X-----6---:-X—2U4—-X--2-2U4-:X------X-----X----:
A:-4-2U4-4----------------------------:-----------------:------X-----X-----:
E:------------2-----4-4/5-----5-4---2-:-----------------:-2-2----4-4---4-4/:
Vida míiaaa.
PUENTE:
Silencio:
Solo:

G:----------------------------------:------9-11-11/13-11U9----9---:
D:-9-11-9-11-9-11-11.11-9-11--9-11-:-X-X-X---------------9-9--11-:

Es tiempo hoy de dar, alabanzas a…

D:----------------------2-4-2-4-2-4-4/6-4-2---:
A:-2-4-2-4-2-4-4--4-2-4---------------------4-:

D:----------------------2-4-2-4-2-4-----:-------------2-4-2-4-2-4-4-X-2U4-:
A:-2-4-2-4-2-4-4--4-2-4-----------------:-2-4-2-4-2-4---------------------:
E:-----------------------------------5-4:---------------------------------:

D:---------2-2-2-2-----------6-:
A:-2-2-2-2---------0-0-0-0-----:
E:--------------------------4--:

Vida mía hoy bendice al que es…

G:--6------------------------------:----6-X-------------------------------:
D:---------4-X------7-X------6-X---:--------------4-X------7--------------:
A:-4--2U4------------------------2-:-2/4----2U4---------------------------:
E:-------2-----4-4/5-----5-4-------:------------2-----4-4/5---5---4-4-4-4-:

G:------------------------------------:-----X-------:------------------:
D:------2-2U4---4-X-------7-X-----6---:-4--X--2-2U4-:X------X---X---X--:
A:-4-2U4-4----------------------------:-------------:------X---X---X---:
E:------------2-----4-4/5-----5-4---2-:-------------:-2-2----4---4---4-:

Luego:
Solo de guitarra:

G:----------------6--8--------------------------------------------------:
D:----------------------------------------------------------------------:
A:-2/4-4-4-4-4-4-4--6--7-7-7-7-7-7/1210----------------11--12---------:
E:---------------------------------------125-5-5-5/9-12--12----4-4-4-4-:
G:--4--5---------6--8---------------------------------------:
D:--------------------------------14—16------------------7--:
A:-2--3---4-4-4-4--6---7-7-7-7-7/14-14-16------------4U7---:
E:------------------------------------------5-5-5-5-5-----4-:

Intérvalo:
Vida mía hoy bendice, al que es…

G:-2/9------------:-9/11-9--------------::-11/13-9-9---------:
D:----------------:--------11-9------7/-::----------11-------:
A:-----975------:-------------11-97/-::-------------9-7-2-:
E:-----------5-4-:---------------------::-------------------:

G:----6-X---------------------------:----6-X-------9-X-------------:
D:-----------4-X-------7-X-----6-X--:-----------------------7-X----:
A:-2/4----2-------------------------:-2/4----4-6U7-----------------:
E:---------2------4--5-----5-4-----5:-------------------7-5------4-:

G:-4-6-4---------:
D:-------4-6-----:
A:---------0U2/4-:

G:---6-X--------------------------:--------------X--------:---------------:
D:----------4-X-----7-X-----6-X---:---------2U4-X-----2U4-:---X------X----:
A:-4-----2------------------------:-----------------------:--X------X-----:
E:--------2-----4-5-----5-4-----4-:-2-2-2-2--------0U2----:----4-4----4-4/:

Vida miiaaa.
Final:

G:---------------------------: (3)
D:-9-11-9-11-9-11-11-11-9-11-:

G:------:-11+v-11U9-9---:
D:-9-11-:------------11-:

G:-----6-X--------6-X---------6-X----:-9U11U9------------------:
D:---------------------2U4-----------:-------11U911U9----------:
A:-2/4------2-2/4---------2/4------4-:----------------11U9U7---:
E:-----------------------------------:-----------------------9-:

G:-----6-X-------6-X-:---------:
D:-------------------:-2-4-2---:
A:-2/4------2/4------:-------4-:

QUE DIOS LES BENDIGA!!!
Este fichero es trabajo propio de su transcriptor y representa su interpretación personal de la canción. El material contenido en esta página es
para exclusivo uso privado, por lo que se prohibe su reproducción o retransmisión, así como su uso para fines comerciales.

© LaCuerda.net · Aviso Legal · Privacidad