Acordes de Guitarra » C »Ciro y los Persas » Barón Rojo (Tab)

Barón Rojo
Ciro y los Persas

Letras, Acordes y Tabs para Guitarra, Bajo y Ukulele

  • -----------------
    -----5-7-8-------
    -5-6--------X4---
     ----------------
    -----------------
    -----------------
    
    Riff 2
    ----------------------------------------------------------------------
    ------5-7-8---------8-10-11------------10-12-13----------5-7-8--------
    -5-6-------X2--8-9---------X2--10-11-----------X2---5-6-------X2------
    ----------------------------------------------------------------------
    ----------------------------------------------------------------------
    ----------------------------------------------------------------------
    
    
    A5
    Al canario un gran armario,
    E5
    un florero al tulipán campeón,
    
  • e |-----------------
    B |-----5-7-8-------
    G |-5-6--------X4---
    D |-----------------
    A |-----------------
    E |-----------------
    
    Riff 1 (completo)
    e |----------------------------------------------------------------------
    B |------5-7-8---------8-10-11------------10-12-13----------5-7-8--------
    G |-5-6-------X2--8-9---------X2--10-11-----------X2---5-6-------X2------
    D |----------------------------------------------------------------------
    A |----------------------------------------------------------------------
    E |----------------------------------------------------------------------
    
    Riff 2 (completo)
    e |----------------------------------------------------------------------
    B |----------------------------------------------------------------------
    G |----------------------------------------------------------------------
    D |-----2-4-5---------5-7-8---------7-9-10---------2-4-5-----------------
    
  • -----------------
    -----5-7-8-------
    -5-6--------X4--- (APAGANDO LAS CUERDAS)
    -----------------
    -----------------
    -----------------
    
    Riff 2: las dos guitarras juntas
    
    1ª Guitarra
    ------------------------------------------------------------
    ------------------------------------------------------------
    ------------------------------------------------------------
    -----2-4-5----------5-7-8-----------7-9-10-----------2-4-5--
    -3-4-------X2--6-7-------X2--8-9---------X2-3-4-------X2----
    ------------------------------------------------------------
    
    2ª Guitarra
    ------------------------------------------------------------
    -----5-7-8-------8-10-11----------10-12-13----------5-7-8---
    
  • +
    ¡Colabora con nosotros!
    Envíanos tu versión de esta canción

Letra de Barón Rojo
Riff 2
Al canario un gran armario,
un florero al tulipán campeón,
es el premio que vas a llevarte.
Esas nenas son cadenas,
pero que ricas que son
la bola del preso era el blackperry.
Riff 2
En el día juntas migas,
regulando te nace el motor
y a la noche encendés las turbinas.
Y nadie te para hoy ya ves,
ni la nube ni el biplano aquel.
No hay sustentación en el vacío.
El pañuelo vuela horizontal ,
y a la noche cae otra vez más ,
sin los instrumentos, sin destino.
Volaría así Richthofen,
volaría así el barón,
volaría así Richthofen, ahh, ahh, ahh!
Riff 2
Hay quien sale, hay quien no vuelve,
hay quien no solo espera otra misión,
y sumar la marca al fuselaje.
Y nadie te para hoy ya ves ,
ni la nube ni el biplano aquel,
no hay sustentación en el vacío.
El pañuelo vuela horizontal,
el gatillo arde otra vez más,
en picada sobre el objetivo.
Volaría así Richthofen
volaría así el Baron
volaría así Richtofen , ahh, ahh, ahh !
(repite)
Volaría así Píñeyro,
volaría así el varón,
volaría así , Píñeyro, ahh !
Volaría así Richthofen
volaría así el Baron
volaría así don Newbery , ahh !
Volaría así Piccione,
volaría así Dumont,
volaría así Hans Freitz , ahh !




[Barón Rojo chords][Barón Rojo cifra]
© LaCuerda.net · aviso legal · privacidad · es · en · pt · contacto
DINAMICO