Tablatura para Guitarra de Christine d'Clario: Dios de Maravillas
Conexión · Inscripción
Letras y Acordes
Pantalla Completa
Imprimir
Versión Texto
Añadir Favorito
Otras Versiones

Mostrar Diagramas
Desfile Automático
Manipular Acordes
Formato del Texto


Dios de Maravillas(TAB)

Christine d'Clario

calidad:
chdc0465
AUTOR: Christine D'clario
ALBUM: Emanuel (2018)
Enviado por Luis
Verso 1

…y no me alejaré
E---------------------10---------14-------
B--------------10-12-----10-12-----------
G-----------------------------------------
D-----------------------------------------
A-----------------------------------------
E-----------------------------------------

No temer…
…Cantare…
E------------------------12--10-----------
B--------------10-12--10------------------
G-----------------------------------------
D-----------------------------------------
A-----------------------------------------
E-----------------------------------------

Aquí estoy…
E------0-0-2---2-2------------------------
B----0--3----------3-2-0-2-2H3-2-0--------
G---2-2---------------------------3-------
D-----------------------------------------
A-----------------------------------------
E-----------------------------------------


CORO 1 (Rasgueo rapido - Mucho Delay y Reverb)
E---10-10-10----7-7-7----9-9-9----10-10-10
B-----------------------------------------
G-----------------------------------------
D-----------------------------------------
A-----------------------------------------
E-----------------------------------------

CORO 2
E-----17-15-14-12-14--------12--15-14------15-14-----------
B--15------------------15--------------12--------14---15---
G----------------------------------------------------------
D----------------------------------------------------------
A----------------------------------------------------------
E----------------------------------------------------------

PUENTE
          Tu Amor....  no me falla...     tu amor...      nunca cambia

E----7/2/7-7-7-7-7-7-10-10-10-10-10-10-10-14-14-14-14-14-14-9-9-9-9-9-9-9
B------------------------------------------------------------------------
G----------------------------------------------------------
D----------------------------------------------------------
A----------------------------------------------------------
E----------------------------------------------------------

    eres fiel.... y fiel   siempre seras.....
E-7-7-7-7-7-7-10-10-10-10-10-10-10-12-12-12-12-12-12-13-13-13
B----------------------------------------------------------
G----------------------------------------------------------
D----------------------------------------------------------
A----------------------------------------------------------
E----------------------------------------------------------

Send your comments to: luis@mediawarehousecayman.com
Este fichero es trabajo propio de su transcriptor y representa su interpretación personal de la canción. El material contenido en esta página es
para exclusivo uso privado, por lo que se prohibe su reproducción o retransmisión, así como su uso para fines comerciales.

© LaCuerda.net · Aviso Legal · Privacidad