Tablatura para Guitarra de Charly García: Asesíname
Conexión · Inscripción
Letras y Acordes
Pantalla Completa
Imprimir
Versión Texto
Añadir Favorito
Otras Versiones

Mostrar Diagramas
Desfile Automático
Manipular Acordes
Formato del Texto


Asesíname(TAB)

Charly García

calidad:
cgar1442
AUTOR: Charly García
ALBUM: Rock and Roll Yo
Enviado por Raymundo
Esta tablatura la hice en base al video de Asesíname,
no a la versión del CD.

No pongo los acordes porque ya hay algunos (demasiados...)

-    -    -    -    -    -    -    -

Guitarra eléctrica: Asesíname
Charly García
Rock and Roll, Yo
2003

------------------

E---------------14--------/
B--------------15---15~---/
G--(0)--(0)---14----------/
D-------------------------/
A-------------------------/
E-------------------------/

Cuando viniste a mi,
cerré la puerta pero abrí,
asesíname, asesíname.

Por darte lo que dí,
me transformé en un souvenir,
asesíname, asesíname.


  Dejé...     imagen...   cajón...    alma...     mellotron...
E--1--------|--3--------|--3--------|--2--------|--4---------/
B----1------|----5-3----|----3------|----2------|----5-4-----/
G------3-2--|--------5--|------5-4--|------4-2--|--------6---/
D-----------|-----------|-----------|-----------|------------/
A----|2x|---|----|2x|---|----|2x|---|----|2x|---|----|2x|----/
E-----------|-----------|-----------|-----------|------------/

  ...con cuentagotas...           Es sólo rock & roll,

E--4---------2h4h5~--4-2------|-(5)-------------------/
B----5-------------------5~---|--3~------------2~-----/
G------[4]--------------------|--2~------------2~-----/
D-----------------------------|--0~------------2~-----/
A-----------------------------|----------------4~-----/
E-----------------------------|-----------------------/

   pero ya es mucho para vos.  Asesíname,  asesíname.

E-----------------------------|------------------------------/
B--0~-------------------------|------------------------------/
G--4~-------------------------|-(2)--------------------------/
D--4~------------5~-----------|--0~--------------------4~----/
A--2~------------5~-----------|--0~-----5-4~---3^(4)^3-2~----/
E----------------3~-----------|-------5----------------------/

                                    Esto lo hace el órgano pero
                                   también suena bien en guitarra.

E--0~----/----------------------|--------5--5--5--5---3-3-5-7-7~--/
B--5~---/--Aquí haces un Mi-----|-6-------------------------------/
G------/---y le vas subiendo----|---5-----------------------------/
D-----/----la intensidad ó------|-----8-(7--7--7--7---5-5-7-9-9~)-/
A----/-----volúmen.-------------|---------------------------------/
E---/---------------------------|---------------------------------/

      Estas dos notas enganchan al mismo tiempo.
        Para lo que se necesitan 2 guitarras.
                     v--------v

E--7-7-7-7--5-5-7-9--9~----|--4--------|--4------------4-------/
B--------------------------|----5-4----|----5------------5-----/
G--------------------------|--------6--|------[4]-[4]------[4]-/
D-(9-9-9-9--7-7-9-11-11~)--|-----------|-----------------------/
A--------------------------|----|2x|---|-----------------------/
E--------------------------|-----------|-----------------------/

 Aquí de fondo solo
 se escucha un
 sintetizador:        Yo me...    ya no...        Asesíname - eh

E------------------|---------------------------|-----------------/
B------------------|---------------------------|-----------------/
G------------------|---------------------------|-----------------/
D--9~---7~--/--14~-|----7~----6~----4~---------|------4-2-2-p-0--/
A------------------|--0-5~----4~----2~-----5~--|--2-5------------/
E--7~---5~--/--12~-|-----------------------3~--|-----------------/

E------------------------------/
B------------------------------/
G------------------------------/
D------------------------------/
A----5-4~---3^(4)^3-2~---------/
E--5-----------------------3~--/
                       ↑
Solo (Arranca más o menos
      por acá.)
       ↓
E-------------------------------------------------------------/
B------12---12----12-12-12-15-17-15-17^(19)^17-17p15-17^(19)--/
G--------------14---------------------------------------------/
D-------------------------------------------------------------/
A-------------------------------------------------------------/
E-------------------------------------------------------------/
         Asesíname...
E-----------------------------------------------------------/
B-----------------------------------------------------------/
G--------------------------7~---7---------------------------/
D------------------------9----9---9~------------------------/
A-----------------------------------------------------------/
E-----------------------------------------------------------/
              Asesíname...                all you need is.../
E-----------------------------------------------------------/
B-----------------------------------------------------------/
G--------------------------------------------0~~~~~~~~~~~~~~/
D-------------------------------------------/--armónico de--/
A----5-4~-------3^(4)^3-2~------------2-5--/------Sol-------/
E--5--------------------------------------3~~~~~~~~~~~~~~~~~/

    love...

  (esto se toca con las uñas lo más cerca
   del puente, en donde las cuerdas están
   más tensas y producen un sonido más      Raspar las cuerdas
   vacío)                                   de forma aleatoria.
                                                    ↓
E-----------------------------------------------------------/
B--3~--3~--3~-----3-2~--2~--2~-----4--3~---3-~--~-~--~--~---/
G--2~--2~--2~---2---2~--2~--2~---2----4~---2---~---~--~--~--/
D--0~--0~--0~------------------------------0--~--~---~--~---/
A-----------------------------------------------------------/
E-----------------------------------------------------------/

                                       one, two, three...
E---------------------------------10~--------------|-----14~--/
B--------------------------------/-armónico de Re--|--15------/
G--7-/-9-/-11~--9-9-9-9-9-9-9~--7~-----------------|----------/
D--------------------------------------------------|----------/
A--------------------------------------------------|----------/
E--------------------------------------------------|----------/

   y a la cama sin postre...
E------------------------------------------------/
B--12-12-12--------------------------------------/
G-----------12-12---12-12-12-12-12-12-12p9-------/
D------------------------------------------12~---/
A------------------------------------------------/
E------------------------------------------------/

Y al final cierra con una guitarra sintetizada, más ó menos así:

E--3-2--3-2--3-2--------2~-------------------------
B-------------------3-5-----3-0h2-3-3~----2~---0~---
G----------------2~-----------------2~----2~---4~-      *silencio*
D--0----0----0---0~-----------------0~----2~---4~---
A-----------------------------------0~----0~---2~----
E--------------------------------------------------

-----------------

Símbolos y demás cosas raras

(a) = notas opcionales
[a] = notas 'apagadas'
 a~ = puede ser vibrato ó dejar sonar la nota/acorde

-----------------

Ya estoy empezando a sacar los teclados nota por nota
(principalmente las cuerdas y el órgano) pero suena bien
si de fondo tocan solo los acordes en cuerdas la primera
vuelta y luego con una guitarra sintetizada ó el órgano.

Después de oír a detalle el tema, solo se puede decir una cosa:

-----------------

Genio.

SNM
Este fichero es trabajo propio de su transcriptor y representa su interpretación personal de la canción. El material contenido en esta página es
para exclusivo uso privado, por lo que se prohibe su reproducción o retransmisión, así como su uso para fines comerciales.

© LaCuerda.net · Aviso Legal · Privacidad