Acordes de Guitarra » C »Chaqueño Palavecino » Si un dia fui tu cantor (Tab)

Si un dia fui tu cantor
Chaqueño Palavecino

Letras, Acordes y Tabs para Guitarra, Bajo y Ukulele

  •       SI UN DÍA FUI TU CANTOR - Milonga 
          Letra y música: Horacio Guarany 
          
    las notas son: Mim mi7 Lam ReM Solm Mim Si7 Mim 
    con transporte en el 2do traste 
    
          Si encuentro tu corazón 
          Perdido en medio e´la huella, 
          Supe dejarte una estrella 
          Caliente como un tizón. 
          Y en el oscuro rincón 
          De tantas cosas perdidas, 
          Suelo hallarte en la querida 
          Nostalgia del diapasón. 
          
          Por eso es que mi canción 			
          Te busca en las madrugadas, 			 
          Hoy que me encuentro sin nada 			
          Yo que fui todo rubor. 				
          Y en el profundo dolor 				
          De verme solo en la vida, 			
          Suelo aliviar mis heridas 			
          Acordándome de vos. 				
          
          Te acordás de aquella flor 
          Que cortamos junto al río, 
          Cuando tu pecho y el mío 
          Eran la misma canción. 
          Cuando de puro varón 
          Lloré de emoción la tarde 
          Que me dijiste no tardes 
    
  • LA interpreta en FA#-.
    
    
    SOLm
    Si encontré tu corazón
    SOL 7                    DOm
    Perdido en medio de la huella
                      FA 7
    Supe dejarte una estrella
                      LA #
    Caliente como un tizón
                       SOLm
    Y en el profundo rincón
                      DOm
    De tantas cosas perdidas
                           RE7
    Suelo hallarte en la querida
                      SOLm
    Nostalgia del diapasón.
    
    
  • version de:Fabian Guevara .C.
    SE LA DEDICO A TODOS y A MIS COMPAÑEROS DE LA MEDIA 3
    
    
    
    1----------9-10-9-------9-10-9-------9-10-9------------------------------
    2------9-10------9--9-10------9-10-12------12-11-12-10-9-10--------------
    3-11-11-----------11-----------------------------------------------------
    4------------------------------------------------------------------------
    
    1------------9-10-9-------------------------------9-10-9-----------------
    2--------9-10----------9-10-9-10-----------9-10-12------12-10-9----------
    3-11-9-10------------11---------11-10-11-10---------------------11-10-11-
    4------------------11----------------------------------------------------
  • +
    ¡Colabora con nosotros!
    Envíanos tu versión de esta canción






[Si un dia fui tu cantor chords][Si un dia fui tu cantor cifra]
© LaCuerda.net · aviso legal · privacidad · es · en · pt · contacto