Tablatura para Guitarra de Chaqueño Palavecino: Puerto Tirol
Conexión · Inscripción
Letras y Acordes
Pantalla Completa
Imprimir
Versión Texto
Añadir Favorito
Otras Versiones

Mostrar Diagramas
Desfile Automático
Manipular Acordes
Formato del Texto


Puerto Tirol(TAB)

Chaqueño Palavecino

calidad:
cpal1331
AUTOR: Chaqueño Palavecino  corregir
ALBUM: desconocido
Enviado por jmgoyen
INTRO: MiM Fa#m SiM (Repite 2 veces)

e -------------------------------------
b -9-9-9-9-10-10-9---9-9-9-9-10-10-9-7-
g -----------------9-------------------
d -------------------------------------
a -------------------------------------
E -------------------------------------

e ---------------7-7-7----7----------
b -7-9-10-10-9-7-------10---10-9-7---
g ---------------------------------9-
d -----------------------------------
a -----------------------------------
E -----------------------------------

e -------------------------------------
b -9-9-9-9-10-10-9---9-9-9-9-10-10-9-7-
g -----------------9-------------------
d -------------------------------------
a -------------------------------------
E -------------------------------------

e ------------------------------------------
b -10-9-7-10-9-7---9-7-----7-9-7---7----7-9-
g ---------------9-----9-8-------8---9-9----
d ------------------------------------------
a ------------------------------------------
E ------------------------------------------

MI FA#m En noches primaverales al reflejo de la luna
SI SI7 MI dibujada en la laguna cantaba mis madrigales. Aprendí en los quebrachales pasar la vida cantando y mis versos ir dejando pal’ quien quede en los fanales. Tiro el pueblito florido, rinconcito abandonado recordando mi pasado, yo jamás te olvidare. Mientras viva llevare como un recuerdo querido porque en el chaco vació donde pase mi niñez. A orillas del rió negro, escuche por ves primera con dulce voz verdadera el amor de una mujer. Por eso eh dejado ayer mi recuerdo mas sincero a vos exprese te quiero hasta que te vuelva a ver. Mientras viva llevare como un recuerdo querido porque en el chaco vació donde pase mi niñez. BUENO GENTE, ESPERO QUE LA DISFRUTEN, DEBEN RECORDAR QUE ENTRE ESTROFA Y ESTROFA HAY UNA PARADA Y LA GUITARRA ENTRA A CONTRATIEMPO LUEGO DE QUE COMIENZAN LOS VIOLINES. ENTRE LAS PARADAS SOLO SE ESCUCHAN VARIACIONES DE LOS VIOLINES MUY SIMILARES A LA INTRODUCCIÓN. SALUDOS!! JUAN MARTIN GOYEN
Este fichero es trabajo propio de su transcriptor y representa su interpretación personal de la canción. El material contenido en esta página es
para exclusivo uso privado, por lo que se prohibe su reproducción o retransmisión, así como su uso para fines comerciales.

© LaCuerda.net · Aviso Legal · Privacidad