Tablatura para Guitarra de Chaqueño Palavecino: La ley y la trampa
Conexión · Inscripción
Letras y Acordes
Pantalla Completa
Imprimir
Versión Texto
Añadir Favorito
Otras Versiones

Mostrar Diagramas
Desfile Automático
Manipular Acordes
Formato del Texto


La ley y la trampa(TAB)

Chaqueño Palavecino

calidad:
cpal0063
AUTOR: Chaqueño Palavecino  corregir
ALBUM: desconocido
Enviado por Rodolfo
La ley y la trampa
Carnaval Cruceño
De oído por Rodolfo Omar Ortiz
Si querés escucharlo pedime el archivo de TablEdit
o de guitar Pro o Wav

Aclaración: esta barrita / entre dos números
es un slide o ligado.Ejemplo 13/10
es u ligado descendente del casillero 13 al 10.

En el tercer compás te conviene
presentar primero el acorde de La mayor en quinto
traste para facilitar la digitación.

Son todas corcheas es decir
que son seis números por casillero o compás y cuando
Aparecen cuatro es porque la última es una Negra con puntillo.

Ojo cada renglón es un compás las barritas superiores son los pulsos

Compás de 6/8

  |           |
|--------------------------|
|--------------------------|
|-------------7---6---7----|
|---------7----------------|
|-5---8--------------------|
|--------------------------|

  |           |
|--------------------------|
|-5------------------------|
|-----6--------------------|
|---------7---5------------|
|--------------------------|
|--------------------------|

  |           |
|--------------------------|
|-------------5-------5----|
|---------6-------7--------|
|-----7--------------------|
|-7------------------------|
|--------------------------|

  |           |
|--------------------------|
|-6------------------------|
|-----7--------------------|
|---------7----------------|
|-------------8------------|
|--------------------------|

  |           |
|--------------------------|
|--------------------------|
|-------------7---6---7----|
|---------7----------------|
|-5---8--------------------|
|--------------------------|

  |           |
|--------------------------|
|-5------------------------|
|-----6---------------6----|
|---------7---5---7--------|
|--------------------------|
|--------------------------|

  |           |
|--------------------------|
|-5------------------------|
|-----6---------------6----|
|---------7---5---7--------|
|--------------------------|
|--------------------------|

  |           |
|--------------------------|
|-------------6---5---6----|
|-7---6---7----------------|
|--------------------------|
|--------------------------|
|--------------------------|

  |           |
|-------------10--9---10---|
|-10--9---10---------------|
|--------------------------|
|--------------------------|
|--------------------------|
|--------------------------|

  |           |
|-12--9--------------------|
|---------10---------------|
|-------------12-----------|
|--------------------------|
|--------------------------|
|--------------------------|

  |           |
|---------9---12--10--12---|
|-----10-------------------|
|-12-----------------------|
|--------------------------|
|--------------------------|
|--------------------------|

  |           |
|-13/-10----------13/-10---|
|---------10---------------|
|-------------10-----------|
|--------------------------|
|--------------------------|
|--------------------------|

  |           |
|---------13/-10-----------|
|-10--------------10-------|
|-----10--------------10---|
|--------------------------|
|--------------------------|
|--------------------------|

  |           |
|-12/-9---------------9----|
|---------10------10-------|
|-------------12-----------|
|--------------------------|
|--------------------------|
|--------------------------|

  |           |
|-12/-9---------------9----|
|---------10------10-------|
|-------------12-----------|
|--------------------------|
|--------------------------|
|--------------------------|

  |           |
|-10-----------------------|
|---------10---------------|
|-----------------10-------|
|--------------------------|
|--------------------------|
|--------------------------|

  |           |
|--------------------------|
|--------------------------|
|--------------------------|
|-12-----------------------|
|--------------------------|
|--------------------------|
Este fichero es trabajo propio de su transcriptor y representa su interpretación personal de la canción. El material contenido en esta página es
para exclusivo uso privado, por lo que se prohibe su reproducción o retransmisión, así como su uso para fines comerciales.

© LaCuerda.net · Aviso Legal · Privacidad