Tablatura para Guitarra de Los Changos: Zamba del carnaval
Conexión · Inscripción
Letras y Acordes
Pantalla Completa
Imprimir
Versión Texto
Añadir Favorito
Otras Versiones

Mostrar Diagramas
Desfile Automático
Manipular Acordes
Formato del Texto


Zamba del carnaval(TAB)

Los Changos

calidad:
chng0403
AUTOR: Los Changos  corregir
ALBUM: Más allá de la Ternura (2006)
Enviado por Mauricio
E|---------------------------------------------------0-------------------|
B|-------------------8-10-8-7--5-5h7p5-3-5-6-5h7p5-3----1-3-5--4-5-7/8-8-|
G|-----------------------------------------------------------------------|
D|------8-9-11-9---9--------8--6-6-----4-6-7-6-----4---2--4-5-4--5-------|
A|-9-11----------7-------------------------------------------------------|
E|---------------------------------------------------------------------0-|


E|----------------------------------------------------0------------------|
B|-------------------8-10-8-7--5-5h7p5-3-5-6-5h7p5-3-----1-3-5--4-0------|
G|------------------------------------------------------------------2-0--|
D|--------------------------8--6-6-----4-6-7-6-----4----2--4-5-4--2------|
A|-12p11-11-12----12------------------------------------------------2----|
E|-------------12-----------------------------------------------------0--|
Este fichero es trabajo propio de su transcriptor y representa su interpretación personal de la canción. El material contenido en esta página es
para exclusivo uso privado, por lo que se prohibe su reproducción o retransmisión, así como su uso para fines comerciales.

© LaCuerda.net · Aviso Legal · Privacidad