Tablatura para Guitarra de Los Changos: Zamba del carnaval
Conexión · Inscripción
Letras y Acordes
Pantalla Completa
Imprimir
Versión Texto
Añadir Favorito
Otras Versiones

Mostrar Diagramas
Desfile Automático
Manipular Acordes
Formato del Texto


Zamba del carnaval(TAB)

Los Changos

calidad:
chng0402
AUTOR: Los Changos  corregir
ALBUM: Más allá de la Ternura (2006)
Enviado por Martín
e|---------------------------------------------------------------------|
B|---------7-5-----8-10-8-7--5-5s3-3-5-6-5-3-1-1-3-5-4-5s7s8-----------|
G|-----6-8-------9-----------------------------------------------------|
D|-7-9---------9-------------------------------------------------------|
A|---------------------------------------------------------------------|
E|---------------------------------------------------------------------|

e|----------12---------------------------------------------------|
B|-12-11-12----12-10s8-8-7s5-5-5s3-3s5-6-5-3s1-1-1s3-5-----------|
G|---------------------------------------------------------------|
D|---------------------------------------------------------------|
A|---------------------------------------------------------------|
E|---------------------------------------------------------------|
Em e|------------0----------pm--------| B|-5-4-0------0------pm----pm------| G|-------2-0--0----pm--pm----pm----| D|------------2--------------------| A|------------2--------------------| E|------------0--------------------| El punteo lo saque yo con la canción en Mi menor... Grande Changos!!!
Este fichero es trabajo propio de su transcriptor y representa su interpretación personal de la canción. El material contenido en esta página es
para exclusivo uso privado, por lo que se prohibe su reproducción o retransmisión, así como su uso para fines comerciales.

© LaCuerda.net · Aviso Legal · Privacidad