Tablatura para Guitarra de Chabuca Granda: La flor de la canela
Conexión · Inscripción
Letras y Acordes
Pantalla Completa
Imprimir
Versión Texto
Añadir Favorito
Otras Versiones

Mostrar Diagramas
Desfile Automático
Manipular Acordes
Formato del Texto


La flor de la canela(TAB)

Chabuca Granda

calidad:
cgra0024
AUTOR: Chabuca Granda  corregir
ALBUM: Array
Enviado por Martin
e----------1-0-----------------------------------------------
B-----0----------3-1----0-0------------1--0--1--0-----0------
G---1-----------------------2--2-2-2---2--2--2--2--2--2-2----
D-2----------------------------3-3-3---------------3----3----
A------------------------------------------------------------
E------------------------------------------------------------
  dejame que te cuente limeña, dejame que te diga la gloria,


e---------------------------------------
B--0-----0--------0--------1------------
G--0---2-0-2---0--0--2--0--2--2---------
D------3---3---0-----3--0-----3--2------
A--------------------------------3------
E---------------------------------------
  del ensueño que evoca la memoria


e---0--------------------------------------------------------
B-------3--1--0---------0------------------------------------
G----------------2---1----1----------------------------------
D---------------------------2-2---0--------------------------
A--------------------------------------3---------------------
E------------------------------------------------------------
   del viejo puente del rio y la alameda...


e----------1-0---------------------------------------------------
B-----0----------3-1----0-0---------------1--0--1--0-----0-------
G---1-----------------------2---2--2--2---2--2--2--2-2---2----2--
D-2-----------------------------3--3--3--------------3--------3--
A----------------------------------------------------------------
E----------------------------------------------------------------
  dejame que te cuente limeña, ahora que aun perfuma el recuerdo,


e------------------------------------
B--0------0---------0-------1--------
G--0---2--0---2---0-0--2-0--2--2-----
D------3------3---0----3-0-----3--2--
A---------------------------------3--
E------------------------------------
   ahora que aun se mece en un sueño,


e---0-----------------------------------------------------------
B-------3--1--0---------0---------------------------------------
G----------------2---1----1-------------------------------------
D---------------------------2-2---0-----------------------------
A--------------------------------------3------------------------
E---------------------------------------------------------------
   del viejo puente del rio y la alameda


e--------7--8--9-10-8--7------------------
B--8-10-------------10-8-10-8--8--7--10-8-
G------------------------10-9--9--8--10-9-
D-----------------------------------------
A-----------------------------------------
E-----------------------------------------
   jazmines en el pelo y rosas en la cara,


e----------------------------------------------------------
B--7-8-7--8-7-8-6--5---6---5--6--8-10-8--------------------
G--8-9-8--9-8-9-7--6---7---6--7--9-10-9--------------------
D----------------------------------------------------------
A----------------------------------------------------------
E----------------------------------------------------------
   airosa caminaba la flor de la canela,


e-------7--8-9-10-8---7-----------------
B--8-10-----------10--8--10--8-8-7-10-8-
G------------------------10--9-9-8-10-9-
D---------------------------------------
A---------------------------------------
E---------------------------------------
   derramaba lisura  y a su paso dejaba


e--6-5---------------------------------5---------------------
B--8-6-8--6-5-8--6-----5---6---5-6---8---8-------------------
G------9--7-6-9--7-------------------------------------------
D------------------------------------------------------------
A------------------------------------------------------------
E------------------------------------------------------------
  aromas de mistura que en el pecho llevaba...


e---------7---8---9-10-8--7-------------------
B--8--10---------------10-8-10-8--8--7--10-8--
G---------------------------10-9--9--8--10-9--
D---------------------------------------------
A---------------------------------------------
E---------------------------------------------
  del puente a la alameda menudo pie la lleva


e------------------------------------------------------
B--7--8--7-8-8---7---8--7--8--6--5--6--6--5--6--8-10-8-
G--8--9--8-9-9---8---9--8--9--7--6--7--7--6--7--9-10-9-
D------------------------------------------------------
A------------------------------------------------------
E------------------------------------------------------
  por la vereda que se estremece al ritmo de su cadera


e-------7-8-9-10-8---7--------------------
B--8-10----------10--8--10--8-8---7--10-8-
G-----------------------10--9-9---8--10-9-
D-----------------------------------------
A-----------------------------------------
E-----------------------------------------
RE-co-gia LA risa de la brisa del rio, e--6--5----------------12--12-10--8--7--10--8-------------- B--8--6--8--6--5--8--6-13--13-12--10-9--12--10------------- G--------9--7--6--9--7------------------------------------- D---------------------------------------------------------- A---------------------------------------------------------- E---------------------------------------------------------- al viento la lanzaba del puente a la alameda... e------------8--0--0----0------1--0----0---- B---------10---------3-----3---------3---1-- G-------9----------------------------------- D--9-10------------------------------------- A------------------------------------------- E------------------------------------------- dejame que te cuente limeña, e--0----------------------------------------------------- B-----3-1---0-------------0------------------------------ G--------------2--1--1--1---1-------------2-------------- D-------------------------------2--2--2------2----------- A-------------------------------------------------------- E-------------------------------------------------------- ay deja que te diga, morena, mi pensamiento e-----0-------------1--0--------0----- B--------3---0---3----------3------1-- G------------------------------------- D--2---------------------------------- A------------------------------------- E------------------------------------- a ver si asi despiertas del sueño, e--0----------------------------------------------------0------ B------3--1---0---------------------0-------------------1------ G------------------2----1----1----1---1----2---2-2--0---0------ D-------------------------------------------------------2------ A-------------------------------------------------------3------ E-------------------------------------------------------------- del sueño aquel que entretiene, morena, tus sentimientos catevario... http://catevarismos.blogspot.com/
Este fichero es trabajo propio de su transcriptor y representa su interpretación personal de la canción. El material contenido en esta página es
para exclusivo uso privado, por lo que se prohibe su reproducción o retransmisión, así como su uso para fines comerciales.

© LaCuerda.net · Aviso Legal · Privacidad