Tablatura para Guitarra de Chabuca Granda: La flor de la canela
Conexión · Inscripción
Letras y Acordes
Pantalla Completa
Imprimir
Versión Texto
Añadir Favorito
Otras Versiones

Mostrar Diagramas
Desfile Automático
Manipular Acordes
Formato del Texto


La flor de la canela(TAB)

Chabuca Granda

calidad:
cgra0022
AUTOR: Chabuca Granda  corregir
ALBUM: Array
Enviado por ricardo
Esta es una de las tantas introducciones de la flor de la
canela, espero que les guste y sigan siempre con la
guitarra. Ricardo.


e|----8-----8-----6-8-6-9------8-6-8--4------8-6-4-3-1-0-0-0----
b|------8----8------------------------6-------------------------
g|--------8---8-------------------------------------------------
D|-------------------------------------------7-5-3-2-0----------
A|-----------------------------------------------------4-4-4----
E|--------------------------------------------------------------

e|----3-4-3-1--------4---4---3---1------------------------------
b|------------------6---6---5---1-------------------------------
g|-----------------4---4---3---1--------------------------------
D|----2-3-2-0-------------------------------------5—-3--1---0----
A|------------------------------------------------6—-5--3--2----
E|--------------------------------------------------------------

payasito86@hotmail.com  
Este fichero es trabajo propio de su transcriptor y representa su interpretación personal de la canción. El material contenido en esta página es
para exclusivo uso privado, por lo que se prohibe su reproducción o retransmisión, así como su uso para fines comerciales.

© LaCuerda.net · Aviso Legal · Privacidad