Tablatura para Guitarra de Celia Cruz: La Vida es un Carnaval
Conexión · Inscripción
Letras y Acordes
Pantalla Completa
Imprimir
Versión Texto
Añadir Favorito
Otras Versiones

Mostrar Diagramas
Desfile Automático
Manipular Acordes
Formato del Texto


La Vida es un Carnaval(TAB)

Celia Cruz

calidad:
ccru0013
AUTOR: Victor Daniel-isidro Infante
ALBUM: desconocido
Enviado por Juan
Me basé en la transcripción ya existente
en lacuerda para piano o teclados y saqué la
tablatura para guitarra ojalá les guste...

INTRO (x2)

e|-----------------------
B|---1-1-1-----1-1-1-1---
G|-----------------------
D|-2-------2-2-----------   x2
A|-----------------------
E|-----------------------

e|-----------------------
B|---1-1-1-----1-1-1-1---
G|-----------------------
D|-3-------3-3-----------   x2
A|-----------------------
E|-----------------------

LETRA

Todo aquel que piense que la vida es desigual
e|----------------------------------
B|-1-1-1---1-1-1-1-3-1-0-1-1--------
G|----------------------------------
D|-------2--------------------------
A|----------------------------------
E|----------------------------------

tiene que saber que no es asi que la vida es una hermosura
e|---------------------------------------
B|-1-1-1-1-3-1-0-1-1---0-1-1-1-3-1-1-0---
G|-------------------2-------------------
D|---------------------------------------
A|---------------------------------------
E|---------------------------------------

hay que vivirla
e|---0--------------
B|-----3-1-0--------
G|------------------
D|-2----------------
A|------------------
E|------------------

Todo aquel que piense que esta solo y que esta mal
e|----------------------------------
B|-1-1-1---1-1-1-1-3-1-0-1-1--------
G|----------------------------------
D|-------2--------------------------
A|----------------------------------
E|----------------------------------

tiene que saber que no es asi que en la vida no hay nadie solo
e|---------------------------------------
B|-1-1-1-1-3-1-0-1-1---0-1-1-1-3-1-1-0---
G|-------------------2-------------------
D|---------------------------------------
A|---------------------------------------
E|---------------------------------------

Y siempre hay alguien
e|---0--------------
B|-----3-1-0--------
G|------------------
D|-2----------------
A|------------------
E|------------------

CORO (x2)

Ay, no hay que llorar  que la vida es un carnaval
e|-------------------------------
B|-----0-1-------0-1-0---1-0-----
G|-2-2-----2---2-------2-----2---
D|-------------------------------
A|-------------------------------
E|-------------------------------

Y es mas bello vivir cantando
e|--------------------------
B|---0-1-0---1-0---0--------
G|-2-------2-----2----------
D|--------------------------
A|--------------------------
E|--------------------------

oh,oh,oh,ay,no hay que llorar que la vida es un carnaval
e|-------------------------------------
B|-----0-----0-1-------0-1-0---1-0-----
G|-2-3---2-2-----2---2-------2-----2---
D|-------------------------------------
A|-------------------------------------
E|-------------------------------------

y las penas se van cantando
e|--------------------------
B|---0-1-0---1-0---0--------
G|-2-------2-----2----------
D|--------------------------
A|--------------------------
E|--------------------------

INTRO (x2)

e|-----------------------
B|---1-1-1-----1-1-1-1---
G|-----------------------
D|-2-------2-2-----------   x2
A|-----------------------
E|-----------------------

e|-----------------------
B|---1-1-1-----1-1-1-1---
G|-----------------------
D|-3-------3-3-----------   x2
A|-----------------------
E|-----------------------

Todo aquel que piense que la vida siempre es cruel
e|----------------------------------
B|-1-1-1---1-1-1-1-3-1-0-1-1--------
G|----------------------------------
D|-------2--------------------------
A|----------------------------------
E|----------------------------------

tiene que saber que no es asi que tan solo hay momentos malos
e|---------------------------------------
B|-1-1-1-1-3-1-0-1-1---0-1-1-1-3-1-1-0---
G|-------------------2-------------------
D|---------------------------------------
A|---------------------------------------
E|---------------------------------------

y todo pasa
e|---0--------------
B|-----3-1-0--------
G|------------------
D|-2----------------
A|------------------
E|------------------

Todo aquel que piense que esto nunca va a cambiar
e|----------------------------------
B|-1-1-1---1-1-1-1-3-1-0-1-1--------
G|----------------------------------
D|-------2--------------------------
A|----------------------------------
E|----------------------------------

tiene que saber que no es asi que que al mal tiempo buena cara
e|---------------------------------------
B|-1-1-1-1-3-1-0-1-1---0-1-1-1-3-1-1-0---
G|-------------------2-------------------
D|---------------------------------------
A|---------------------------------------
E|---------------------------------------

Y todo cambia
e|---0--------------
B|-----3-1-0--------
G|------------------
D|-2----------------
A|------------------
E|------------------

CORO (x2)

Ay, no hay que llorar  que la vida es un carnaval
e|-------------------------------
B|-----0-1-------0-1-0---1-0-----
G|-2-2-----2---2-------2-----2---
D|-------------------------------
A|-------------------------------
E|-------------------------------

Y es mas bello vivir cantando
e|--------------------------
B|---0-1-0---1-0---0--------
G|-2-------2-----2----------
D|--------------------------
A|--------------------------
E|--------------------------

oh,oh,oh,ay,no hay que llorar que la vida es un carnaval
e|-------------------------------------
B|-----0-----0-1-------0-1-0---1-0-----
G|-2-3---2-2-----2---2-------2-----2---
D|-------------------------------------
A|-------------------------------------
E|-------------------------------------

y las penas se van cantando
e|--------------------------
B|---0-1-0---1-0---0--------
G|-2-------2-----2----------
D|--------------------------
A|--------------------------
E|--------------------------

INTRO (x2)

e|-----------------------
B|---1-1-1-----1-1-1-1---
G|-----------------------
D|-2-------2-2-----------   x2
A|-----------------------
E|-----------------------

e|-----------------------
B|---1-1-1-----1-1-1-1---
G|-----------------------
D|-3-------3-3-----------   x2
A|-----------------------
E|-----------------------

MI E-MAIL: juanda0612@gmail.com
Este fichero es trabajo propio de su transcriptor y representa su interpretación personal de la canción. El material contenido en esta página es
para exclusivo uso privado, por lo que se prohibe su reproducción o retransmisión, así como su uso para fines comerciales.

© LaCuerda.net · Aviso Legal · Privacidad