Tablatura para Bajo de Catupecu Machu: Plan B
Conexión · Inscripción
Letras y Acordes
Pantalla Completa
Imprimir
Versión Texto
Añadir Favorito
Otras Versiones

Mostrar Diagramas
Desfile Automático
Formato del Texto


Plan B(BAJ)

Catupecu Machu

calidad:
cmac0543
AUTOR: Catupecu Machu  corregir
ALBUM: Número Imperfecto
Enviado por Facundo
Buenas otra vez :)
Espero que antes de criticar entiendan bien la tablatura,
y que les guste a todos.
Un saludo a todo los ''catupequistas'' :P

AGUANTE CATUPE LOCO Y ¡¡¡¡FUERZA GABY!!!!

Mi video: http://www.youtube.com/watch?v=r4pI8IS8zac&feature=channel

Afinacion:
    G |-------------------------------------------
    D |-------------------------------------------
    A |-------------------------------------------
--> D#|--------------LA-UNICA-QUE-CAMBIA----------

 / = Slide

Intro:
 G |----------------------------------------------8888888888-
 D |-99999-88888-------------9999999999-888888888------------
 A |-------------66666-66666---------------------------------
 D#|---------------------------------------------------------

Y ya me siento...                                  ...mi calooooor...

 G |-----------------------------------------    G |--10-11-13---12-12-----
 D |----4--------4--4------------------------    D |-----------------------
 A |-22---2--01-4--4--4-----/66666--/66666--- x4 A |--8--9--11---14-14-/2--
 D#|--------------------0----------0---------    D#|-----------------------

 G |---------------------------------------------------------
 D |--------------------------8------------------------------
 A |-222222-11111-66666--8899----------------/66666-/66666---
 D#|-----------------------------88888-77777-----------------

 G |---------------------------------------    G |----------------------
 D |----4--------4--4----------------------    D |--8-----------4-------
 A |-22---2--01-4--4--4-----/66666--/66666- x2 A |----11-9-11-----6-4-6-
 D#|--------------------0----------0-------    D#|----------------------

 G |-----------------------------------------
 D |----4--------4--4------------------------
 A |-22---2--01-4--4--4-----/66666--/66666---  x2
 D#|--------------------0----------0---------

 G |-------------------------------------------------------
 D |------------------------7-8-8-7-----------7-8-8-7------
 A |--6-----------------6-9----------9----6-9----------9---
 D#|----8-7-5-5--7-7---------------------------------------

 G |--------------------------------------------------
 D |----------------7-8-8-7-----------7-8-8-7---------
 A |------------6-9----------9----6-9----------9/11/9-
 D#|-5-5--7-7-----------------------------------------

                                                   tanto tiempo...
 G |-------------------------------------------------------
 D |-------------------------------------------------------
 A |---------------------------------------------------/66-
 D#|--55555555-77777777-88888888-55555555-7777777--/14/----

        y cuando faltas... ME HACES FALTA.
 G |-------------------------------------------
 D |-------------------------------------------
 A |-22222-1111-/8--------6--------------------
 D#|----------------------0--------------------

    La conciencia [...]
 G |--------------------------------     G |--10-11-13-13--11-10--
 D |----4--------4--4---------------     D |----------------------
 A |-22---2--01-4--4--4-----/66666--     A |--8--9--11-11--9--8---
 D#|--------------------0-----------     D#|----------------------

    A la conquista de mi alma, mi alma, mi alma...
 G |---------------------------------
 D |----------------------6-4-6-4----
 A |-22222-11111-444444-6--------6---
 D#|---------------------------------
    Y al conflicto...
 G |------------------------6-8---------------
 D |----------------------6-----6-------------
 A |-22222-11111-44444------------8-11--6-8---
 D#|------------------------------------------

   No rezes por mi...
 G |---------------------------------------------------------
 D |---------------------------------------------------------
 A |-22222-11111-44444-------122222-11-----4--------1-2--2-4-
 D#|-------------------55555------------33---0---------------

 G |------------------------------------------------------------
 D |------------------------------------------------------------
 A |-/66666--/6666-22222-11111-66666------8-9--11---14-14-/2----
 D#|-------0----------------------------------------------------

 G |-------------------------------------------
 D |-------------------------------------------
 A |-22222-11111-------6666111111(onces)-9-----  x2
 D#|-------------00000-------------------------

    Punteo del bajo:
 G |------------------------11-----------10-----------11-13-11-10-11-
 D |---------------13-11-13-----13-11-13-----13-11-13----------------
 A |-22222-11111-----------------------------------------------------
 D#|-----------------------------------------------------------------

 G |------------------------11-----------10-11-13-11-10-11-10--------
 D |---------------13-11-13-----13-11-13----------------------11-13--
 A |-22222-11111-----------------------------------------------------
 D#|-----------------------------------------------------------------

 G |------------------------11-----------10-----10-11-13-15-13-11-10-
 D |---------------13-11-13-----13-11-13-----13----------------------
 A |-22222-11111-----------------------------------------------------
 D#|-----------------------------------------------------------------

 G |--------------------------------------------
 D |--------------------------------------------
 A |-22222-11111-44444-------122222-11111-44444-
 D#|-------------------55555--------------------

 G |-------------------
 D |-------------------
 A |-11-9-8-9--8-6-4-6-
 D#|-------------------

 G |--------------------------------------------
 D |--------------------------------------------
 A |-22222-11111-44444-------122222-111-----4---
 D#|-------------------55555-------------33---0-

Ante algun comentario, duda o critica mi mail es:
faku_nw_imcr07@hotmial.com
Gracias y suerte
Este fichero es trabajo propio de su transcriptor y representa su interpretación personal de la canción. El material contenido en esta página es
para exclusivo uso privado, por lo que se prohibe su reproducción o retransmisión, así como su uso para fines comerciales.

© LaCuerda.net · Aviso Legal · Privacidad