Acordes de Guitarra » C »la Castañeda » Zenit (Tab)

Zenit
la Castañeda

Letras, Notas, Punteos, Tablaturas y Acordes de Guitarra (Tabs & Chords)

  • Letra y Acordes
    E                                  A
    Crei cuando dijeron que la Luna se dormia cuando salía el Sol
    E                                         A
    Creí cuando dijeron que el diablo se escondia husmeando en las
    
    esquinas de la habitacion
    E                                   A
    Crei ademas porque dijeron las maestras miopes
    
    que el Sol no se veia de frente
    E
    Y yo me crei cuando dijeron que la
    A
    vida no existia en la muerte
    
    
    CORO:
    A       B                  C#m
    Noo , no quiero ser una sombra en el suelo
    E                 A                        B
    
  • Letra y Acordes
                        E E                 E  E                      A  A                    A A
    e |-------------------------------------------------------------------------------------------|
    B |-------------------------------------------------------------------------------------------|
    G |------------1--1-------------1--1----------------2--2---------------2--2-------------------|
    D |------------2--2-------------2--2----------------2--2---------------2--2----2/4--2---------|
    A |--0--2/4-----------0--2/4--------------0--2/4-------------0--2/4---------------------4-----|
    E |-------------------------------------------------------------------------------------------|
    
     Despues de dos veces entra la vos y el acompañamiento de la segunda guitarra, pero la guitarra 1 no deja de tocar el intro hasta el coro.
    
    
    E                                                         A
    Crei cuando dijeron que la Luna se dormia cuando salía el Sol 
    E                                                             A
    Creí cuando dijeron que el diablo se escondia husmeando en las esquinas de la habitacion
    E                                                                  A
    Crei ademas porque dijeron las maestras miopes que el Sol no se veia de frente 
    E                                                        A
    Y yo me crei cuando dijeron que la vida no existia en la muerte
     
    
  • Tablatura
    Acordes:  E: 000220  A: 022200
    
    INTRO: Esto toca la guitarra 1 hasta llegar  los coros
    
                E E         E  E        A  A        A A
    e |--------------------------------------------------------------------|
    B |--------------------------------------------------------------------|
    G |---------1--1--------1--1--------2--2--------2--2-------------------|
    D |---------2--2--------2--2--------2--2--------2--2----2/4--2---------|
    A |--0--2/4------0--2/4------0--2/4------0--2/4------------------4-----|
    E |--------------------------------------------------------------------|
    E                                                         A
    Creí cuando dijeron que la Luna se dormía cuando salía el Sol
    E
    Creí cuando dijeron que el diablo se escondía husmeando
            A
    en las esquinas de la habitación
    E
    Creí además porque dijeron las maestras miopes que el Sol no se
    A
    
  • Tablatura
              E                          A
    e|---------------------------------|-------------------------|
    B|---------------------------------|-------------------------|
    G|--------1--1---------1--1--------|-2--2---------2----------|
    D|--------2--2---------2--2--------|-2--2---------2--2h4-2---|  x2
    A|-2-3-4--------2-3-4--------2-3-4-|-------2-3-4-----------4-|
    E|---------------------------------|-------------------------|
    
    Verso
    Creí cuando dijeron que la luna............
              E                          A
    e|---------------------------------|-------------------------|
    B|---------------------------------|-------------------------|
    G|--------1--1---------1--1--------|-2--2---------2----------|
    D|--------2--2---------2--2--------|-2--2---------2--2h4-2---|  x3
    A|-2-3-4--------2-3-4--------2-3-4-|-------2-3-4-----------4-|
    E|---------------------------------|-------------------------|
    
              E                          A
    e|---------------------------------|---------------------------|
    
  • Tablatura
    e|------------------------------------------------------------------|
    B|------------------------------------------------------------------|
    G|------------------------------------------------------------------|
    D|----------6-6---------6-6---------7-7---------7-------------------|
    A|----------7-7---------7-7---------7-7---------7---7h9--7----------|
    E|---7h8h9-------7h8h9-------7h8h9-------7h8h9--------------9-------|
    
                  Creí cuando dijeron...
    e|------------------------------------------------------------------|
    B|------------------------------------------------------------------|
    G|------------------------------------------------------------------|
    D|----------6-6---------6-6---------7-7---------7-7-----------------|
    A|----------7-7---------7-7---------7-7---------7-7---7h9--7--------|
    E|---7h8h9-------7h8h9-------7h8h9-------7h8h9----------------9-----|
    
    Este riff se repite y se toca hasta el coro.
    
    El coro se puede tocar con acordes ordinarios o con power chords (5tas)
    yo recomiendo que si es con acustica sea con acordes y la electrica 5tas
    ya no esquematizare los acordes pues creo todos los conocemos.
    
  • Tab p/Bajo
     INTRO DE BASS/GUITARRA
    
    E |-------------------------------------------------|-----------------
    A |--234--------234-----234----234---------4-2-3-4--|-----------------
    D |------2--2--------2-2----2-2----2—2-4-2----------|-----------------
    G |-------------------------------------------------|-----------------
    
    
    
    Entra la lira y la voz
    
    riff 1 entra el bajo
       crei ademas por que dijeron...
    E |---00000000000---5555555555555-------
    A |-------------------------------------
    D |-------------------------------------
    G |-------------------------------------
    
    riff 2 noooo no quiero ser una sombra...
    E |---5555555--77777777------------------------------
    A |----------------------4444--6--7777--9---7-6-7----
    D |--------------------------------------------------
    G |--------------------------------------------------
    
    continua riff 2                       Aaa   Aaa  Aaaa
    E |---------------------------------|-2222--4444--555-
    A |---------------------------------|-----------------
    D |------------------
  • +
    ¡Colabora con nosotros!
    Envíanos tu versión de esta canción

Letra de Zenit
Crei cuando dijeron que la Luna se dormia cuando salía el Sol
Creí cuando dijeron que el diablo se escondia husmeando en las
esquinas de la habitacion
Crei ademas porque dijeron las maestras miopes
que el Sol no se veia de frente
Y yo me crei cuando dijeron que la
vida no existia en la muerte
Noo , no quiero ser una sombra en el suelo
Quiero verme reflejado transparente en los espacios y los cielos
a la orilla de tus senos
Colgado como cuadro en las paredes de tu vientre, perdido en tus
pasisajes
Ahhh Ahhh Ahhh
Crei cuando dijeron que otros mundos no vivian y todo era
lo que ves
Pense que tu sonrisa era inagotable como el agua , hasta que
casi se fue
Queria siempre mas, siempre lo siguiente y lo que tuve
lo olvide
Crei que lo que amaba era en si tu carne, pero descrubi
tu ser
Nooo no quiero ser una sombra en el suelo
Quiero verme reflejado transparente en los espacios
y los cielos a la
orilla de tus senos
Colgado como cuadro en las paredes de tu vientre,
vagando en tus rodillas
Ahhh Ah Ahhh
Ahhh Ah Ahhhaaaaaaa
En el solo es:
Se repite hasta el coro
Noo , no quiero ser una sombra en el suelo
Quiero verme reflejado transparente en los espacios
y los cielos a la
orilla de tus senos
Colgado como cuadro en las paredes de tu vientre vagando
en tus rodillas, creciendo por tus labios
Llegar al Cenit pasional, Y estallar el universo en sangre
y energía
Soy el Cenit pasional, estallando entre tus piernas,
creciendo por tus labios
Llegando al punto maximo de comunión, de comunion,
yeeeeh!, yeeeah, yeejeeah, yeeeah,
yejejeah, yejejeaah!, yejejeahaauuh, uuhjuuh
uuhh!, uuhh! Estallando entre tus piernas.
Ahhh Ahhh Ahhh
oohh! oheehah
yehjeieh yeehjeah
se repite
Esta es mi primer tablatura, trate de corregir la
otra que subieron y se la dedico a los “pardos”,
también a aquellas por las cuales me nace el tocar
alguna canción, también a ti
Saret que ya te olvidaste de mi,
Dudas o para lo que quieran:
azulmiguel@hotmail.com



© LaCuerda.net · Aviso Legal · Privacidad