Acordes de Guitarra » C »Carnaval de Cadiz » Tanguillo (Tab)

Tanguillo
Carnaval de Cadiz

Letras, Acordes y Tabs para Guitarra, Bajo y Ukulele

  • Este punteo lo utilizo yo cuando hago una primera parte introducturia,
    es decir el ritmo de un tanguillo cualqiera, cuando
    acabo de puntear a continuación hago otra introducción
    paracida a la primera y seguidamente le suelo meter 
    un tanguillo ya entero (le suelo meter el de los 
    duros Antiguos.)
    
    El ritmo del puntuao si sois buenos asficionaos, vereis 
    como es fácil, es un tanguillo pero en vez de 'rasgao',
    punteando.
    
    A= Aire
    
    6---------------------------
    5---------------------------
    4---------------------------
    3---------------------------
    2--2-----2-----2------------
    1----A-5---A-5---A-5-5-5-5--
    
    6---------------------------
    5---------------------------
    4---------------------------
    3---------------------------
    2--2-----2-----2------------
    1----A-4---A-4---A-4-4-4-4--
    
    6---------------------------
    5---------------------------
    4---------------------------
    3---------------------------
    2--2-----2-----2------------
    1----A-5---A-5---A-5-5-5-5--
    
    6----
  • Este es un tanguillo de cadiz continuación del
     que ya esta en la pagina.
    
    
    
    1--5-5-5-4-4-4-2-2-2-0-0-0
    2-------------------------
    3-------------------------
    4-------------------------
    5-------------------------
    6-------------------------
    
    
    1--5-5-5-4-4-4-2-0---4-4-4
    2------------------3------
    3-------------------------
    4-------------------------
    5-------------------------
    6-------------------------
    
    
    
    1--2-2-2-0-0-0-------4-4-4
    2--------------3-3-3------
    3-------------------------
    4-------------------------
    5-------------------------
    6-------------------------
    
    
    1--2-2-2-0-----5-5-5-4-4-4
    2----------3-2------------
    3-------------------------
    4-------------------------
    5-------------------------
    6-------------------------
    
    
    1--2-2-2-0-0-0-----0-----0
    2--------------2-3---2-3--
    3-------------------------
    4-------------------------
    5-------------------------
    6-------------------------
    
    
    1--2-4-2---0-2---0-2-4-2-0
    2--------3-----3----------
    
  • +
    ¡Colabora con nosotros!
    Envíanos tu versión de esta canción






[Tanguillo chords][Tanguillo cifra]
© LaCuerda.net · aviso legal · privacidad · es · en · pt · contacto