Acordes de Guitarra » C »Carnaval de Cadiz » Presentación la serenissima (Tab)

Presentación la serenissima
Carnaval de Cadiz

  • Letra y Acordes
    LAm
    Oh donna mia Veneziana masquera bianca di mio cuore
    di mia ordine en mia razza o mia gondola finale
    MI7                      FA MI7                  LAm
    abre tu anima al cantare        di mia serena comparsa
    Interminabile signora si cada giorno e un lamento
    e de que se fugare el tempo e de la crisi agravare
    MI7
    il día no tiene finale la vita e un aborrimento
    LAm         REm      LAm REm       LAm
    Donna donna! la felicita llama la porta
    MI7    LAm             MI7
    di tua casa e mia comparsa
                         LAm
    E un rigalo di carnivale (E un rigalo di carnivale)
    mascherato di nostra locura (mascherato di nostra locura)
                           SOL
    una pompa un allegro cantare (una pompa un allegro cantare)
    una magia que el mare te cura (una magia que el mare te cura)
                          LAm
    
  • Tablatura
    -------------------------------------------------
    CEJILLA AL 5
    
    |--7-5-7-3-5-2-3-0-2---0-----------|--5-3-5-2-3-0-2---0---------------|
    |--------------------3---1-3-0-1---|----------------3---1-3-1-0---0-1-|
    |--------------------------------2-|----------------------------2-----|
    |----------------------------------|----------------------------------|
    |----------------------------------|----------------------------------|
    |----------------------------------|----------------------------------|
    
    |--3-2-3-0-2---0-------------------------------------------2-2-5-5-|
    |------------3---1-3-1-0---------------------------1-1-4-4---------|
    |------------------------2-0-------------------2-2-----------------|
    |----------------------------4-2-1-----1-1-4-4---------------------|
    |----------------------------------2-2-----------------------------|
    |------------------------------------------------------------------|
    
    |--12-10-12-8-10-7-8-5-7-3-5-2-3-0-2-|--10-8-10-7-8-5-7-3-5-2-3-0-2---0---|
    |------------------------------------|------------------------------3---1-|
    |------------------------------------|------------------------------------|
    
  • +
    ¡Colabora con nosotros!
    Envíanos tu versión de esta canción

Letra de Presentación la serenissima
Oh donna mia Veneziana masquera bianca di mio cuore
di mia ordine en mia razza o mia gondola finale
abre tu anima al cantare di mia serena comparsa
Interminabile signora si cada giorno e un lamento
e de que se fugare el tempo e de la crisi agravare
il día no tiene finale la vita e un aborrimento
Donna donna! la felicita llama la porta
di tua casa e mia comparsa
E un rigalo di carnivale (E un rigalo di carnivale)
mascherato di nostra locura (mascherato di nostra locura)
una pompa un allegro cantare (una pompa un allegro cantare)
una magia que el mare te cura (una magia que el mare te cura)
un tumore que cada febraio (un tumore que cada febraio)
disparata el mio sentimento (disparata el mio sentimento)
un tesoro que arriba di cadi (un tesoro que arriba di cadi)
dela misma tacita da argento. (dela misma tacita da argento)
Ponte la maschera bianca e sube a la gondola
viaja per tutti canale di nostra cita milenaria
anti de que algún día se hunda en il mar
ara que tuto se hunde in la morte
e que la vita te importe con salud e amore e liberta.
Donna donna! la felicita llama la porta
di tua casa e mia comparsa
oh donna mia veneziana masquera bianca di mio cuore
di mia orden y mia razza o mia gondola finale
abre tu anima al cantare di mia serena comparsa
serenissima, serenissima, ah!



© LaCuerda.net · aviso legal · privacidad · contacto