Acordes de Guitarra » C »Carnaval de Cadiz » Pasaban ya las 12 (Tab)

Pasaban ya las 12
Carnaval de Cadiz

Letras, Acordes y Tabs para Guitarra, Bajo y Ukulele

  • -  MI7   LA7    SIm7/5-   SIm7   FA#7   RE   REm   LA7
    e|--0-----0-------0--------2-------2-----2----1-----0---
    B|--0-----2-------3--------3-------2-----3----3-----2---
    G|--1-----1-------2--------2-------3-----2----2-----0---
    D|--0-----2-------3--------4-------2-----0----0-----2---
    A|--2-----0-------2--------2-------4-----x----x-----0---
    E|--0-----x-------x--------x-------2-----x----x-----x---
    
    
    e|---------9--10--12-10-9----------
    B|-10--12-----------------12-------
    G|---------------------------------
    D|---------------------------------
    A|---------------------------------
    E|---------------------------------
    
    Mi7-La7M tataratatatarata
    
        MI7      LA7     SIm7/5-
    tatara   tatatarara
    
  • +
    ¡Colabora con nosotros!
    Envíanos tu versión de esta canción

Letra de Pasaban ya las 12
Mi7-La7M tataratatatarata
tatara tatatarara
pasaban ya las 12 de aquella noche fria
en la q entre las sombras sorprendi a 2 amigas
no hubiese sido extraño ver a las 2 charlando
si no es por que maria beso a lucia en los labios
en aquel momento que pase no estuve acertado y las mire
sin saber que aquello haria daño
si los besos de amor con pasion no dan quebranto
aquel beso entre 2 rosas a las 2 dejo llorando
porq no podia ser que una mujer besara a otra
porq no podia ser que les gustara estar a solas
porq quise juzgar con mis prejuicios a otras personas
se amaban porq lo veian asi y jamas dudaron por
lo que la gente diria
pasaban ya las 12 y decidi que una letra escribiria
se la debia se la debia a 2 rosas lucia y maria
Para ver mas acordes de carnaval http://es.geocities.com/videosdecarnaval




[Pasaban ya las 12 chords][Pasaban ya las 12 cifra]
© LaCuerda.net · aviso legal · privacidad · es · en · pt · contacto
DINAMICO