Tablatura para Guitarra de Carlos Gardel: Por una cabeza
Conexión · Inscripción
Letras y Acordes
Pantalla Completa
Imprimir
Versión Texto
Añadir Favorito
Otras Versiones

Mostrar Diagramas
Desfile Automático
Manipular Acordes
Formato del Texto


Por una cabeza(TAB)

Carlos Gardel

calidad:
carl0094
AUTOR: Carlos Gardel
ALBUM: desconocido
Enviado por Marcos
A continuación verán una interpretación instrumental de esta famosa
pieza. Esta interpretación no es para ser acompañada por canto ya que
no sigue el patrón de la letra original, sólo agregué las sílabas que
acompañan cada nota para ayudar a la orientación rítmica.

    por u naca   beza   deunnoblepo   trillo  que justoenla
e||-----------|--2-0----------2--4-|--7--5----9---10-----9-|
B||-2---3-4-5-|---------4---5-1----|-----------------12----|
G||-----------|--------------------|--5--5-----------------|
D||-----------|--------------------|-----------------------|
A||-0---------|--0-3----2---3------|--0--0-----------------|
E||-----------|--------------------|-----------------------|

  raya a flojaal lle  gar    quealjurarson riendo el amorqueestámin
--7-5--4-5--4----5-|--2------7----5------|---------------5----3---|
-------------------|--3-------------7--3-|-2---0--2--36---------6-|
-------------------|--2------------------|------------------------|
-------------------|--0------0---------0-|-0---------00--0------0-|
--0------0--0----0-|-------0-------------|------------------------|
-------------------|---------------------|------------------------|

tiendo     quemaenuna hoguera todomique
-5---0---5-5--7-8--5-|--7-----4-5-7-4-|
---------------------|-----7----------|
---------------------|----------------|
---------------------|--0--0--0-------|
-0---0-----0---------|----------------|
---------------------|----------------|

  rer                 poru  na  ca     be     za
--5--------0--|--0-----8-8--10--12--|--12--0-----3--2-|
-----------3--|--1----10--------12--|--12-----12------|
-----------1--|--2-----9--------12--|--12-----12------|
-----2-----0--|--2-----7---------0--|----------0------|
--0-----0--2--|--0-----0------------|-----------------|
-----------0--|---------------------|-----12-----3--2-|

       todaslaslo    cu    ras            subo ca  que
--1----5-5--7--9--|--9------------|-------1-1--3-/-5--|
-------7-------9--|--9-----9-5--4-|--3----3-----------|
-------6-------9--|--9-----9------|-------2-----------|
-------4----------|--------0------|-------0-----------|
------------------|----------7--6-|--5----------------|
--1------------0--|-----0---------|-------------------|

  be sa borralatris teza calmalaamargura.
--5--5-----------|-----------------------|
--5--5----0--1---|--1-0-----0-1-----1~---|
--5-----2------2-|-------2-------2----4~~|
-----------------|-----------------------|
--------0--------|-------0---------------|
-----------------|-----------------------|

       poru  na  ca     be     za              sie  llameol
--0-----8-8--10--12--|--12--------3--2-|--1----5-5--7--9--|
--1----10--------12--|--12-----12------|-------7-------9--|
--2-----9--------12--|--12-----12------|-------6-------9--|
--2-----7---------0--|------0---0------|-------4----------|
--0-----0------------|-----------------|------------------|
---------------------|------------3--2-|--1------------0--|

  vi    da             queimporta  per   derme milvecesla
--9------------|-------1----1--3-/-5--|--5--5------------|
--9-----9-5--4-|--3----3--------------|--5--5-----0-1----|
--9-----9------|-------2--------------|--5-----2-------2-|
--------0------|-------0--------------|------------------|
----------7--6-|--5-------------------|------------------|
-----0---------|----------------------|------------------|

  vida  paraque    vi vir..
-----------------|-0--0---||
--------0--------|-3--1---||
--4-----1--------|-1--2--*||
----4-----2-4----|-0--2--*||
--5-5------------|-2--0---||
-----------------|-0------||

Les recuerdo que es una interpretación instrumental, por eso quizás
no coincida con el audio original. Espero sea de su agrado.

Marcos Espinoza marcos8_1991@hotmail.com
Este fichero es trabajo propio de su transcriptor y representa su interpretación personal de la canción. El material contenido en esta página es
para exclusivo uso privado, por lo que se prohibe su reproducción o retransmisión, así como su uso para fines comerciales.

© LaCuerda.net · Aviso Legal · Privacidad