Acordes de Guitarra » C »Carlos Chaouen » Bosque Lejano (Tab)

Bosque Lejano
Carlos Chaouen

Letras, Acordes y Tabs para Guitarra, Bajo y Ukulele

  •   MIm                  DO       LAm
    e|------------------------|----------|-------0-----|
    B|------0-----------------|----1-----|-----02--1---|
    G|----0--0--0--0--0--0--0-|--0---0---|---2-------2-| 
    D|------------------------|--------2-|-------------|
    A|---------2--0-----------|3---------|-0-----------| 
    E|-0-------------3--2--0--|----------|-------------|
            He venido de un bosque     le-ja    no
    
    (Segundo punteo)
      MIm                  DO       LAm
    e|------------------------|----------|-------0-----|
    B|------0-----------------|----1-----|-----02--1---|
    G|----0--0--0--0--0--0--0-|--0---0---|---2-------2-| 
    D|------------------------|--------2-|-------------|
    A|------------------0--2--|3---------|-0-----------| 
    E|-0-------0--2--3--------|----------|-------------|
       me he   perdido en mil y un    sen-deros
    
    
    
  • +
    ¡Colabora con nosotros!
    Envíanos tu versión de esta canción

Letra de Bosque Lejano
He venido de un bosque le-ja no
(Segundo punteo)
me he perdido en mil y un sen-deros
(Primer punteo)
he bailado con toros lidiados
(Segundo punteo)
y he recogido todo del suelo,
(Primer Punteo)
(IGUAL)
soy pistilo de amapola en celo,
busco flores que me den consuelo,
he llovido desde nubes amarillas
y he vivido en las alcantarillas.
Hoy quiero hacer canciones que no digan nada,
quiero hacer poesía sin palabras,
hoy quiero hacer un jardín de tu cuerpo,
quiero hacer un festín por tu boca.
He pintado un arcoiris negro
y he hecho el amor con los jilgueros,
he sido entretenedor de cuerdos
y he perdido en tu reloj mi tiempo.
Hoy quiero hacer canciones que no digan nada,
quiero hacer poesía sin palabras,
hoy quiero hacer un jardín de tu cuerpo,
quiero hacer un festín por tu boca.
Hoy quiero vivir, de nuevo en tu reloj
que es el que señala mi tiempo.
Hoy quiero pintar, de nuevo tus labios
que son los que sangran mi pecho.
Hoy quiero escribir de nuevo en tu papel,
que es donde mueren mis gametos.
Hoy quiero vivir...
PD:'transcrita por Agu Rott y Fernan Hidabe. Buena canción Chaouen, es buena, es buena. iiiiiiiiihhh'




[Bosque Lejano chords][Bosque Lejano cifra]
© LaCuerda.net · aviso legal · privacidad · es · en · pt · contacto
DINAMICO