Tablatura para Bajo de Callejeros: Tan perfecto que asusta
Conexión · Inscripción
Letras y Acordes
Pantalla Completa
Imprimir
Versión Texto
Añadir Favorito
Otras Versiones

Mostrar Diagramas
Desfile Automático
Formato del Texto


Tan perfecto que asusta(BAJ)

Callejeros

calidad:
call0463
AUTOR: Callejeros, Djerfy, Rogello Santos
ALBUM: Rocanroles Sin Destino
Enviado por Fabian
TAN PERFECTO QUE ASUSTA (ESTE TEMA ME LO HICIERON A MI)
CALLEJEROS
ROCANROLES SIN DESTINO (2004)
Words & Music By Pato Fontanet

Este es un temazo de Callejones, pongo el bajo que hizo un amigo
y yo lo transcribo. Para los bajista esta es la posta asi que no
duden.
Hay partes en las que hay que hacer unos silencios, acomodenlo
escuchando el tema asi trabajan el oido......

Esta es la estrucutura del tema:
Intro
Verso 1
Estribillo
Verso 2
Estribillo
Puente
Solo
Estribillo
Estribillo son voz
Final

Arrancas cuando la guitarra termina una secuencia de notas
(4 compases de 4 tiempos)

Intro

Bm      E        C#m   F#5

G------|--------|-----|--------|
D------|--------|-----|--------|
A----7-|--------|-4---|--4-5-4-|
E-7----|--5-7-5-|---2-|--------|

VERSO 1

Bm     E        C#m     F#5

G-----|--------|-----------| Pattern 1
D-----|--------|-----------|
A-----|-7------|-4---4-5-4-|
E-7-7-|--5-7-5-|---2-------|

Tener la oportunidad, poder estar mas alla

Bm   E        C#m  F#5
G---|--------|---|---------| Pattern 2
D---|--------|---|---------|
A---|-7------|-4-|---4-5-4-|
E-7-|--5-7-5-|---|-2-------|

tan acostumbrado a ser, a desconfiar a no ganar

Bm       E    C#m  F#5
G------------|---|---------| Pattern 3
D------------|---|---------|
A-----7------|-4-|---4-5-4-|
E-7-7--5-7-5-|---|-2-------|

el mar se te abrio una vez, se te abrio para no parar

Bm      E      C#m   F#5
G---|---------|-----------| Pattern 4
D---|---------|-----------|
A---|-7-------|-4---4-5-4-|
E-7-|---5-7-5-|---2-------|

y vos no te despertaste, lo arruinaste una vez mas

ESTRIBILLO

      D          A      Bm                  Bm
G--------|--------|-----------------|-----------------|
D--------|--------|-----------------|-----------------|
A-5--5-5-|--------|-----------------|-----------4---2-|
E--------|-5--5-5-|-2-2-2-0-2-2-2-0-|-2-2-2-0---------|

Es tan perfecto que asusta

G--------|--------|-----------------|-----------------|
D--------|--------|-----------------|-----------------|
A-5--5-5-|--------|-----------------|-----------------|
E--------|-5--5-5-|-0-0-0-0-0-0-0-0-|-0-0-0-0-0-0-0-0-|

por que nunca es justa la felicidad

   D          A       Bm                  Bm
G--------|--------|-----------------|-----------------|
D--------|--------|-----------------|-----------------|
A-5--5-5-|--------|-----------------|-----------4---2-|
E--------|-5--5-5-|-2-2-2-0-2-2-2-0-|-2-2-2-0---------|

Saber elegir lo que cuesta mas

   D        A        E                 E
G--------|--------|-----------------|-----------------|
D--------|--------|-----------------|-----------------|
A-5--5-5-|--------|-----------------|-----------------|
E--------|-5--5-5-|-0-0-0-0-0-0-0-0-|-0-0-0-0-0-0-0-0-|

No cualquiera suma sin restar

VERSO 2

Igual al verso 1:

Sentis la electricidad, y no la sabes llevar (pattern 1)
te quema te paraliza, no te deja reaccionar (pattern 2)

El enemigo peor, ese gran saboteador (pattern 3)
siempre sera uno mismo, y ese miedo a estar mejor (pattern4)


ESTRIBILLO


PUENTE COMO INTRO (el bajo toca las dos veces)


SOLO   (el solo dura 4 compases de 4 tiempos)

 Bm            E   C#m     F#5
G-----------------|------|--------|
D-----------------|------|--------|
A---------------7-|-4----|--4-5-4-|
E-7-7-7-7-7-7-7---|----2-|--------|

  Bm  E           C#m    F#5
G------|---------|-----|--------|
D------|---------|-----|--------|  x3 (esta secuencia se
A----7-|---------|-4---|--4-5-4-|      hace 3 veces)
E-7----|---5-7-5-|---2-|--------|


ESTRIBILLO

ESTRIBILLO SIN VOZ (se toca sin el canto)

FINAL (aca la guitarra toca unas frases, dura 4 compases de 4)

  Bm  E            C#m    F#5
G------|---------|-----|--------|
D------|---------|-----|--------|
A----7-|---------|-4---|--4-5-4-|
E-7----|---5-7-5-|---2-|--------|

 Bm  E           C#m F#5 Let ring----------
G------|---------|-----|--------|
D------|---------|-----|--------| (el ultimo compas
A---7--|---------|-4---|--------|  se deja sonando)
E-7----|---5-7-5-|---9-|--------|


Cualquier duda o consulta.......ESCUCHEN EL TEMA!!
Fabian de Rio Gallegos
Este fichero es trabajo propio de su transcriptor y representa su interpretación personal de la canción. El material contenido en esta página es
para exclusivo uso privado, por lo que se prohibe su reproducción o retransmisión, así como su uso para fines comerciales.

© LaCuerda.net · Aviso Legal · Privacidad