Tablatura para Guitarra de Café Tacuba: Tengo Todo
Conexión · Inscripción
Letras y Acordes
Pantalla Completa
Imprimir
Versión Texto
Añadir Favorito
Otras Versiones

Mostrar Diagramas
Desfile Automático
Manipular Acordes
Formato del Texto


Tengo Todo(TAB)

Café Tacuba

calidad:
tacb0882
AUTOR: Café Tacuba  corregir
ALBUM: Sino (2007)
Enviado por Daniel
Este es el Solo de "Tengo Todo" de cafe tacuba del album SIno,
con un poco de delay suena muy bien.
Espero Q les guste y califikenla para saber si les gusta y si esta correcta,
depronto no esta 100 % correcta pero es lo q alcanzo a escuchar en el disco.

Tempo = 95
Electric Guitar

Legend
L - tied note/Ligadura
s - slide/deslizar
~ - vibrato




E ||-19-15---------------------|----------------------------|
B ||----------19-15------------|----------------------------|
G ||o------------------15------|--17----17-15-17-19L---19---|
D ||o--------------------------|----------------------------|
A ||---------------------------|----------------------------|
E ||---------------------------|----------------------------|


--19-15---------------------|----------------------------|
-----------19-15------------|----------------------------|
--------------------15------|--17-17-17-15-17s19L---19(~)|
----------------------------|----------------------------|
----------------------------|----------------------------|
----------------------------|----------------------------|


--19-15---------------------|----------------------------|
-----------19-15------------|----------------------------|
--------------------15------|--17----17-15-17-19L---19---|
----------------------------|----------------------------|
----------------------------|----------------------------|
----------------------------|----------------------------|


--19-15---------------------|
-----------19-15------------|
--------------------15------|
----------------------------|
----------------------------|
----------------------------|


---------------------------------------------------|||
---------------------------------------------------|||
--17--(R)--17-(R)--17-(R)--15----17s---19L---19(~)o|||
--------------------------------------------------o|||
---------------------------------------------------|||
---------------------------------------------------|||

se repite todo creo q dos veces;
la "R" en la ultima barra de compas
es un Silencio de semicorchea (1/16)





Transcrita por DANIEL BQRO

Q Viva Latino America, Y arriba los tacvbos!
Este fichero es trabajo propio de su transcriptor y representa su interpretación personal de la canción. El material contenido en esta página es
para exclusivo uso privado, por lo que se prohibe su reproducción o retransmisión, así como su uso para fines comerciales.


© LaCuerda.net · Aviso Legal · Privacidad