Tablatura para Bajo de Los Bunkers: Tú
Conexión · Inscripción
Letras y Acordes
Pantalla Completa
Imprimir
Versión Texto
Añadir Favorito
Otras Versiones

Mostrar Diagramas
Desfile Automático
Formato del Texto


(BAJ)

Los Bunkers

calidad:
bunk0463
AUTOR: Duran/duran
ALBUM: Vida de Perros (2005)
Enviado por José, basado en Jorge
esta es mi version:
tuning: G D A E

intro:
G|-----------------------------------------------------------------------||
D|-------------------------------3-3---3-3-----3-3----3-2----------------||
A|---------------------------3-5-----5-----3-5------3-----5-3------------||
E|-5-5-0-5-5-0-3-5-5-0-0-3-5---------------------------------------------||

G:-----------------------------------------------------------------------||
D:-----------------------------------------------------------------------||
A:-2-2-0-2-2---0-2-2---2-0-----------------------------------------------||
E:-----------3-------3-----3-2-0-0-10-12-12--10-12-14-12-14-15-14-13-12--||

1er Verso:
G|-----------------------------------------------------------------------||
D|-------------------------------3-3---3-3-----3-3----3-2----------------||
A|---------------------------3-5-----5-----3-5------3-----5-3------------||
E|-5-5-0-5-5-0-3-5-5-0-0-3-5---------------------------------------------||

G:-----------------------------------------------------------------------||
D:-----------------------------------------------------------------------||
A:-2-2-0-2-2---0-2-2---2-0-----------------------------------------------||
E:-----------3-------3-----3-2-0-0-10-12-12--10-12-14-12-14-15-14-13-12--||

G|-----------------------------------------------------------------------||
D|-------------------------------3-3---3-3-----3-3----3-2----------------||
A|---------------------------3-5-----5-----3-5------3-----5-3------------||
E|-5-5-0-5-5-0-3-5-5-0-0-3-5---------------------------------------------||

G|-----------------------------------------------------------------------||
D|-----------------------------------------------------------------------||
A|-2-2-0-2-2---0-2-2---2-0-----------------------------------------------||
E|-----------3-------3-----3-2-0-0-10-12-12--10-12-14-12-14-15-15-15-15--||

1er Coro:
G|------------------------------------------------------------------|
D|-----------------3-3-3-0-3-3--------------------------------------||x 2
A|-3-3-3-0-3-3-3-0-------------5-3--1-1-1-0-1-1-1-0-6-6-6-0-6-6-5-4-||
E|------------------------------------------------------------------|/

remate del coro:
G|-----8--------8--------6--------5--||
D|-----------------------------------||
A|-6-6---6--6-6---6--4-4---4--3-3---3||
E|-----------------------------------||

2do verso:
G|-----------------------------------------------------------------------||
D|-------------------------------3-3---3-3-----3-3----3-2----------------||
A|---------------------------3-5-----5-----3-5------3-----5-3------------||
E|-5-5-0-5-5-0-3-5-5-0-0-3-5---------------------------------------------||

G:-----------------------------------------------------------------------||
D:-----------------------------------------------------------------------||
A:-2-2-0-2-2---0-2-2---2-0-----------------------------------------------||
E:-----------3-------3-----3-2-0-0-10-12-12--10-12-14-12-14-15-14-13-12--||

durante el 1er Solo de Guitarra:
G|-----------------------------------------------------------------------||
D|-------------------------------3-3---3-3-----3-3----3-2----------------||
A|---------------------------3-5-----5-----3-5------3-----5-3------------||
E|-5-5-0-5-5-0-3-5-5-0-0-3-5---------------------------------------------||

G|-----------------------------------------------------------------------||
D|-----------------------------------------------------------------------||
A|-2-2-0-2-2---0-2-2---2-0-----------------------------------------------||
E|-----------3-------3-----3-2-0-0-10-12-12--10-12-14-12-14-15-15-15-15--||

2do Coro:
G|------------------------------------------------------------------|
D|-----------------3-3-3-0-3-3--------------------------------------| |x4
A|-3-3-3-0-3-3-3-0-------------5-3--1-1-1-0-1-1-1-0-6-6-6-0-6-6-5-4-| |
E|------------------------------------------------------------------|/

remate del coro:
G|-----8--------8--------6--------5--||
D|-----------------------------------||
A|-6-6---6--6-6---6--4-4---4--3-3---3||
E|-----------------------------------||

3er Verso:
G|-----------------------------------------------------------------------||
D|-------------------------------3-3---3-3-----3-3----3-2----------------||
A|---------------------------3-5-----5-----3-5------3-----5-3------------||
E|-5-5-0-5-5-0-3-5-5-0-0-3-5---------------------------------------------||

G:-----------------------------------------------------------------------||
D:-----------------------------------------------------------------------||
A:-2-2-0-2-2---0-2-2---2-0-----------------------------------------------||
E:-----------3-------3-----3-2-0-0-10-12-12--10-12-14-12-14-15-14-13-12--||

durante el 2do Solo de Guitarra:
G|-----------------------------------------------------------------------
D|-------------------------------3-3---3-3-----3-3----3-5-7-8------------|
A|---------------------------3-5-----5-----3-5------5--------------------|
E|-5-5-0-5-5-0-3-5-5-0-0-3-5---------------------------------------------|
                                                                        >x2
G|-----------------------------------------------------------------------|
D|-9-9-7-9-9--5-7-9-9--5--9-7-5-4----------------------------------------|
A|--------------------------------7-7-7-7-9-9-9-9-10-10-10-10-11-11-11-11|
E|-----------------------------------------------------------------------/

G|-----------------------------------------------------------------------||
D|-------------------------------3-3---3-3-----3-3----3-2----------------||
A|---------------------------3-5-----5-----3-5------3-----5-3------------||
E|-5-5-0-5-5-0-3-5-5-0-0-3-5---------------------------------------------||

G|-----------------------------------------------------------------------||
D|-------------------------------------------------------5/7-7---7-------||
A|-2-2-0-2-2---0-2-2---2-0-------------------------------------7---------||
E|-----------3-------3-----3-2-0-0--0-1-1--1-2-2--2-3-3------------------||

Ojala, que les agrade, se que hay una version de otra persona,
pero esta es mas exacta pueden escucharla, les marco todo,
 la otra es muy ambigua y con las notas al reves.
ojala que les agrade. diviertanse y rokeen duro.
Este fichero es trabajo propio de su transcriptor y representa su interpretación personal de la canción. El material contenido en esta página es
para exclusivo uso privado, por lo que se prohibe su reproducción o retransmisión, así como su uso para fines comerciales.

© LaCuerda.net · Aviso Legal · Privacidad