Tablatura para Guitarra de Buenavista Social Club: El Carretero
Conexión · Inscripción
Letras y Acordes
Pantalla Completa
Imprimir
Versión Texto
Añadir Favorito
Otras Versiones

Mostrar Diagramas
Desfile Automático
Manipular Acordes
Formato del Texto


El Carretero(TAB)

Buenavista Social Club

calidad:
bscl0042
AUTOR: Buenavista Social Club  corregir
ALBUM: desconocido
Enviado por Rodrigo
Esta es la version mas parecida al disco de Buenavista Social Club

Espero que les sirva.


|------7-----------8--------------7-------------|
|--5-5----5--5--5-----5--5---4-5----5-5---------|
|----------------------------------------7------|
|-------------------------------------------7---|
|-----------------------------------------------|
|-----------------------------------------------|



|-----------------------------------------|
|------4-5-5-----------8-6-5--------------|
|--5-7-------7-----------------5-7--------|
|---------------7--7----------------7-----|
|-----------------------------------------|
|-----------------------------------------|



|----------------5---------|
|------5-------5-----------|
|----5----4--5-------------|
|--7-----------------7-----|
|--------------------------|
|--------------------------|



|-------------------------------------------------------|
|-5-6-5-6-5--------5------------------------------------|
|------------4--7-----5--5------7-5-4----------4--------|
|----------------------------7---------7-6-7------7-----|
|-------------------------------------------------------|
|-------------------------------------------------------|



|---------------------------------------------------|
|--5-5-8-6-5-6-5------------------------------------|
|-----------------------------------4-4--5----------|
|-------------------7--7-----7-7-6----------7-------|
|-------------------------7-------------------------|
|---------------------------------------------------|



|----------------------------------------------------------|
|------5-5------------6--5---------5--5--------------------|
|--5-5------7--4--7----------5--5--------7-5--4--7-5-------|
|----------------------------------------------------------|
|----------------------------------------------------------|
|----------------------------------------------------------|


|----------------------------------------------------------|
|-----------6---------------5------------------------------|
|-----7--7-----7------5--5----5------4-4-7-4---------------|
|--7--------------7--------------7-------------6-7-7-7-----|
|----------------------------------------------------------|
|----------------------------------------------------------|


Gracias, 20 de Octubre 2016
Este fichero es trabajo propio de su transcriptor y representa su interpretación personal de la canción. El material contenido en esta página es
para exclusivo uso privado, por lo que se prohibe su reproducción o retransmisión, así como su uso para fines comerciales.

© LaCuerda.net · Aviso Legal · Privacidad