Acordes de Guitarra » B »El bordo » Hablame (Tab)

Hablame
El bordo

Letras, Acordes y Tabs para Guitarra, Bajo y Ukulele

  • e|---------------------------------------------|
    B|---------------------------------------------|
    G|-------3-3--4-4---------22222222222----------|
    D|--4-4--3-3--4-4--4-2----22222222222----------|
    A|--4-4--1-1--2-2--4-2----00000000000----------|
    E|--2-2------------2-0-------------------------|
    
    
    
    ARREGLO DE PRE ESTRIBILLO:
    
    e|---------------------------------------------|
    B|---------------------------------------------|
    G|--666666666666666----88888888----------------|
    D|--777777777777777----99999999----------------|
    A|---------------------------------------------|
    E|---------------------------------------------|
    
    
    
    
  • +
    ¡Colabora con nosotros!
    Envíanos tu versión de esta canción

Letra de Hablame
ARREGLO DE PRE ESTRIBILLO:
SOBRE RIFF PRINCIPAL
Veo un amigo que está muy confundido, vamos.
¿No ves que así vas solo hacia un triste fin? Vamos.
SOBRE ARREGLO
Cuando la ansiedad y el fantasma quiera entrar,
cuando llegue el sudor frío, cuando empieces a temblar,
las costillas en la piel, el gatillo en la sien,
por favor, te pido, que esta vez...
SOBRE RIFF PRINCIPAL
Háblame, y a donde estés yo iré.
Tan sólo llámame, y a donde estés yo iré.
Hola, mi amigo, yo sé que no has dormido ayer,
puedo comprender que no queda tiempo que perder.
SOBRE ARREGLO
No quiero mirar y ver la misma postal
que afirma que lo malo es una genialidad,
que te roba el corazón, que te tira para atrás,
que te pide siempre más y más.
SOBRE RIFF PRINCIPAL
Háblame, y a donde estés yo iré.
Tan sólo llámame, y a donde estés yo iré.
Veo un amigo que está muy confundido, vamos.
¿No ves que así vas solo hacia un triste fin? Vamos.
SOBRE ARREGLO
No quiero mirar y ver la misma postal
que afirma que lo malo es una genialidad,
que te roba el corazón, que te tira para atrás,
que te pide siempre más y más.
SOBRE RIFF PRINCIPAL
Háblame, y a donde estés yo iré.
Tan sólo llámame, y a donde estés yo iré.
Háblame, háblame, háblame, háblame.
No tiene muchos cambios, hay que encontrar el tiempo del riff y ya lo tienen.
Ante cualquier duda angelb8773@gmail.com
Saludos!




[Hablame chords][Hablame cifra]
© LaCuerda.net · aviso legal · privacidad · es · en · pt · contacto
DINAMICO