Acordes de Guitarra » B »Bacilos » Cuestion de Madera (Tab)

Cuestion de Madera
Bacilos

Letras, Notas, Punteos, Tablaturas y Acordes de Guitarra (Tabs & Chords)

  • Letra y Acordes
    e|-------------------------------------------------------------|
    B|-------------------------------------------------------------|
    G|-------------------------------------------------------------|
    D|----2-----2-----2h3-2----2h3-2----3-------3----- 2------0----|
    A|--3--3--2---2--0-------0--------3---3-3-3---3-3-------2------|
    E|---------------------------------------------------3---------|
    
    
    
    
    I)
    C           Em         Am
    Este es un rato de esperar
                      F             C         G
    que desea usted señor, que voy a querer pensé
    I)
    Una mesa cerca del balcón
    solo se puede pasar, si va usted a comer
    I)
    Pobre camarero  en realidad
    
  • Letra y Acordes
    INTRO: C
    
    C - EA7 - Am
    c - EA7 - Em x2
    
    
    
    C                  EA7         Am
    Despues de un buen rato de esperar
                      F             C         G
    que desea usted señor, que voy a querer pensé
    C         EA7          Am
     Una mesa cerca del balcón
                     F       C              G
    solo se puede pasar, si va usted a comer
    C           EA7           Am
     Pobre camarero  en realidad
                         F           C       G
    su reflejo ve en mi piel, y pierdo valor
    C                EA7           Am
    
  • Tablatura
                               C                           
    |------------------------------------------------------
    |-----1-----1-----1-----1-----1-----1-----1-----1-----1
    |----0-----0-----0-----0-----0-----0-----0-----0-----0-
    |-0h2---0h2---0h2---0h2---0h2---0h2---0h2---0h2---0h2--
    |------------------------------------------------------
    |------------------------------------------------------
                                                   (bis)
      C         Em      Am                F       C
    -------------------------------------------------------
    ---------1p0-----1p0--------------------------------1p0
    --------0-------0----------------------------------0---
    -------2-------2-------2h3-2---2h3-2-------2------2----
    ---0/3-------2-------0---------------3---3----0/3------
    -----------------------------1---------1---------------
      Em
    -------------------------------------------------------
    -------1p0---------------------------------------------
    ------0------------------------------------------------
    -----2-------------------------------------------------
    
  • +
    ¡Colabora con nosotros!
    Envíanos tu versión de esta canción

Letra de Cuestion de Madera
I)
Este es un rato de esperar
que desea usted señor, que voy a querer pensé
I)
Una mesa cerca del balcón
I)
Pobre camarero en realidad
su reflejo ve en mi piel, y pierdo valor
I)
Es la vieja historia de este mundo colonial
siga usted patrón, que le sirvo hoy
II)
y así van tantos años
y así tanta mediocridad
haciendo nuestras vidas
al ¿Montero? confundido de una Europa que aqui nunca pudo ser
Es cuestión de madera oh oh
la fibra del corazón, de las ganas de los huesos por seguir
Es cuestión de madera oh oh oh oh
siga usted patrón, que le sirvo hoy
I)
No puedo, ni quiero convencer
al camarero de quien diablos soy, me parezco tanto a èl
Nunca va entender, nunca va a comprender
que su sangre es del color, de un nuevo amanecer
II)
y así van tantos años
y asi tanta mediocridad
haciendo nuestras vidas
al ¿Montero? confundido de una Europa que aqui nunca pudo ser
Es cuestion de madera oh oh
no se puede negociar, màs que estilo es solo se lo que se es
Es cuestion de madera oh oh oh oh
siga usted patron, que le sirvo hoy
Es cuestion de madera oh oh
la fibra del corazòn, de las ganas de los huesos por seguir
Es cuestion de madera oh oh oh oh
siga usted patron, que le sirvo hoy
II)
y asi van tantos años
y asi tanta mediocridad
haciendo nuestras vidas
al ¿Montero? confundido de una Europa que aqui nunca pudo ser
Es cuestion de madera oh oh
la fibra del corazòn, de las ganas de los huesos por seguir
Es cuestion de madera oh oh oh oh
siga usted patron, que le sirvo hoy
Es cuestion de madera oh oh
no se puede negociar, màs que estilo es solo se lo que se es
Es cuestion de madera oh oh oh oh
siga usted patron, que le sirvo hoy



© LaCuerda.net · Aviso Legal · Privacidad
DINAMICO