Tablatura para Bajo de los Auténticos Decadentes: El murguero
Conexión · Inscripción
Letras y Acordes
Pantalla Completa
Imprimir
Versión Texto
Añadir Favorito
Otras Versiones

Mostrar Diagramas
Desfile Automático
Formato del Texto


El murguero(BAJ)

los Auténticos Decadentes

calidad:
aude0172
AUTOR: Pablo Armesto, Gaston "Frances" Bernardou, Martin "La Mosca" Lorenzo, M. Pajarol
ALBUM: Mi Vida Loca
Enviado por Luis
INTRO:
G-------------------------------------------------------------
D-------------------------------------------------------------
A-----------------5-5-5-5------------------------------------- x2
E-5-0-5-0-5-0-5-0--5-5-5-5------------------------------------

CANTO:
G-------------------------------------------------------------
D-------------------------5-5---------------------------------
A-----------------5-5-5-5--5-5------4-5-----------------------
E-5-0-5-0-5-0-5-0--5-5-5-5-----5-0-5--------------------------

CORO:
G-------------------------------------------------------------
D---------37-37--------37-37--------37-37---------------------
A--47-47-5--5---47-47-5--5---47-47-5--5---47-47-5-------------
E-5--5---------5--5---------5--5---------5--5-----------------

PARADA:
G-------------------------------------------------------------
D-------------------------------------------------------------
A-55-5-4--------------55-5-0-55-54-----------4-5/--5-5-55-----
E-------55-5-0-55-5-0-------------55-5-0-55-5-----------------

(REPITE CANTO)
(REPITE CORO)

SOLO:
G-------------------------------------------------------------
D-------------------------------------------------------------
A--------5-5---------5-5---------5-5---------5-5------------- x2
E-5-0-5-0-5-5-5-0-5-0-5-5-5-0-5-0-5-5-5-0-5-0---0-2----------

CANTO 2:
G-------------------------------------------------------------
D-5-5------------------5-5------------------------------------
A--5-5-5-5---------5-5--5-5-5-5---------5---------------------
E-------5-5-5-0-5-0-5-5------5-5-5-0-5-0----------------------

CANTO 3:
G-------------------------------------------------------------
D----53--37------53--37------53--37------53--37---------------
A--47--75--53--47--75--53--47--75--53--47--75--53-------------
E-5----------65----------65----------65----------65-----------

G-------------------------------------------------------------
D---------37-37-----------------------------------------------
A--47-47-5--5---47-47-5-5-3-----------------------------------
E-5--5---------5--5---------6---------------------------------

FINAL:
G-------------------------------------------------------------
D---------37-37--------37-37--------37-37---------------------
A--47-47-5--5---47-47-5--5---47-47-5--5---47-47-5-5-3--------- x3
E-5--5---------5--5---------5--5---------5--5---------6-------
Este fichero es trabajo propio de su transcriptor y representa su interpretación personal de la canción. El material contenido en esta página es
para exclusivo uso privado, por lo que se prohibe su reproducción o retransmisión, así como su uso para fines comerciales.

© LaCuerda.net · Aviso Legal · Privacidad