Acordes de Guitarra » A »Armando Manzanero » Esperaré (Tab)
  • Letra y Acordes
    Gm    Cm
    Esperaré
                     Gm 
    a que sientas lo mismo que yo,
             Cm      F7        A#
    a que la luna la mires del mismo color
          D7
    esperaré
                     Gm
    que adivines mis versos de amor
                 Cm                  D7
    a que en mis brazos encuentres calor.
    
       (I)
     
    Esperaré
    a que vayas por donde voy
    a que tu alma me des como yo te la doy
    esperaré
    a que aprendas de noche a soñar
    
  • Letra y Acordes
    Cm - D - Gm x 2
    
    
    
         I
    
       Cm
    Esperaré
         D            Gm
    a que sientas lo mismo que yo,
             Cm      F7        Bb
    a que la luna la mires del mismo color
          D7
    esperaré
                     Gm
    que adivines mis versos de amor
                 Cm                  D
    a que en mis brazos encuentres calor.
    
         II
    
  • Tablatura
    Gm - D# - Cm - F - Bb - D7
    Gm - Cm - G# - D - Gm
    
    e|-3-5-6-5h6h5---3-5-3h5h3---------1-3--
    B|-------------------------3---3-3------
    G|--------------------------------------
    D|--------------------------------------
    A|--------------------------------------
    E|--------------------------------------
    
    e|---------10h11-10-11-10h11h10-8--10-8----8-10--
    B|-8-10-11------------------------------11-------
    G|-----------------------------------------------
    D|-----------------------------------------------
    A|-----------------------------------------------
    E|-----------------------------------------------
    
    e|-3-5-6-5h6h5---3-5-3h5h3---------1-3--
    B|-3-----------------------3---3-3------
    G|-3------------------------------------
    
  • +
    ¡Colabora con nosotros!
    Envíanos tu versión de esta canción

Letra de Esperaré
Esperaré
a que sientas lo mismo que yo,
a que la luna la mires del mismo color
esperaré
que adivines mis versos de amor
a que en mis brazos encuentres calor.
(I)

Esperaré
a que vayas por donde voy
a que tu alma me des como yo te la doy
esperaré
a que aprendas de noche a soñar
a que de pronto me quieras besar.
Esperaré
que las manos me quieras tomar
que en tu recuerdo
me quieras por siempre llevar
en mi presencia
sea el mundo que quieras sentir,
que un día no puedas sin mi amor vivir.
Esperaré
a que sientas nostalgia por mi
a que me pidas que no me separe de ti,
tal vez jamás seas tú de mi
más yo mi amor, esperaré,
esperaré, esperaré.



© LaCuerda.net · aviso legal · privacidad · contacto