Tablatura de Ariel Camacho y los Plebes del Rancho: No lo hice bien
Ariel Camacho y los Plebes del Rancho  corregir
Recuerden mi Estilo [2015]
Requinto:

e|-12-12-10--9-10/12-12-12-12-|
B|-14-14-12-10-12/14-14-14-14-|
G|----------------------------|
D|----------------------------|
A|----------------------------|
E|----------------------------|

e|----9-14-12-12-10-10--9--9-7-7/9---9--9--9-|
B|--10--15-14-14-12-12-10-10-9-9-10-10-10-10-|
G|-9-----------------------------------------|
D|-------------------------------------------|
A|-------------------------------------------|
E|-------------------------------------------|

e|----9-14-12-12-10-10--9--9-7-7/9---9--9--9-|
B|--10--15-14-14-12-12-10-10-9-9/10-10-10-10-|
G|-9-----------------------------------------|
D|-------------------------------------------|
A|-------------------------------------------|
E|-------------------------------------------|

e|--9--9-7-7/9---9--9--9/10-10--9--9/10-10-10---10---10-10-10|
B|-10-10-9-9/10-10-10-10/12-12-10-10/12-12-12-12--12-12-12-12|
G|-----------------------------------------------------------|
D|-----------------------------------------------------------|
A|-----------------------------------------------------------|
E|-----------------------------------------------------------|

e|---12--11--10--9------------------------------------------------|
B|-14--13--11---10-10-9-7-----------------------------------------|
G|-----------------------9-7-6-4-----------------------2----------|
D|------------------------------7-7-6-4-2-0-------2-2-2-4-2-4-2---|
A|-----------------------------------------4-2-0-4-4-4---------4-0|
E|----------------------------------------------------------------|

Acompañamiento:
A-Fm-D-E7-A Ritmo: Ranchero
Este fichero es trabajo propio de su transcriptor y representa su interpretación personal de la canción. El material contenido en esta página es
para exclusivo uso privado, por lo que se prohibe su reproducción o retransmisión, así como su uso para fines comerciales.
© LaCuerda.net · aviso legal · privacidad · contacto