Tablatura para Guitarra de Ariel Camacho: Me gustas mucho
Conexión · Inscripción
Letras y Acordes
Pantalla Completa
Imprimir
Versión Texto
Añadir Favorito
Otras Versiones

Mostrar Diagramas
Desfile Automático
Manipular Acordes
Formato del Texto


Me gustas mucho(TAB)

Ariel Camacho

calidad:
acmc0421
AUTOR: Ariel Camacho  corregir
ALBUM: desconocido
Enviado por charlysax
Key of A

TABS PARA EL REQUINTO. LUEGO LA LETRA Y ACORDES.
E|--12--10--9---9------5--5--0--0--5--5--0--5--0--5--5--
B|--14--12--10--10-----7--7--0--0--7--7--0--7--0--7--7--
G|------------------------------------------------------
D|------------------------------------------------------
A|------------------------------------------------------
E|------------------------------------------------------
E|-----------------------------------------0--0--
B|--7--7--7--5--5--3--3--3-----0--0--0--0--0--0--
G|--7--7--7--6--6--4--4--4-----1--1--1--2--------
D|-----------------------------------------------
A|-----------------------------------------------
E|-----------------------------------------------
E|--0--0--0--0--0--0--0--0--0--0--0--
B|--2--2--0--0--2--2--0--2--0--2--2--
G|-----------------------------------
D|-----------------------------------
A|-----------------------------------
E|-----------------------------------
E|--12--12--10--9---9-------5--5--0--0--5--5--0--5--0--5--5
--
B|--14--12--14--10--10------7--7--0--0--7--7--0--7--0--7--7
--
G|------------------------------------------------------
D|------------------------------------------------------
A|------------------------------------------------------
E|------------------------------------------------------
E|-----------------------------------------0--0--
B|--7--7--7--5--5--3--3--3-----0--0--0--0--0--0--0--0
G|--7--7--7--6--6--4--4--4-----1--1--1--2--------2--2
D|-----------------------------------------------
A|-----------------------------------------------
E|-----------------------------------------------
E|-----------------------------------------------------
B|--7-------------------------------7--------------------
G|-----9--7--6-------------6--7--9-----9--7--9--7--6--9--
Page 1
 

D|----------------9--7--9--------------------------------
A|-----------------------------------------------------
E|-----------------------------------------------------
E|-----------------------------------------
B|--9--7-----------7-----------------------
G|--------9--7--9-----9--7--9--7--6--------
D|-----------------------------------9--7--
A|-----------------------------------------
E|-----------------------------------------
E|--------------------------------
B|--------------------------------
G|--------------------------------
D|--4--2--0--4--2--0--------------
A|--------------------4--3--2--0--
E|--------------------------------
E|----------------
B|----------------
G|----------------
D|--4--2--------
A|---------4--0--
E|----------------



A D Me gustas mucho,
E7 A A7 me gustas tanto que ni te imaginas.
D Me gustas mucho,
E7 A A7 que soy capaz de darte mi vida.
D E7 Sacrificarme por un beso tuyo  
A E7 sería un honor si estas a mi lado
D E7 A A7 Y presumirle a la gente que estoy enamorado,
D E7 A porque me gustas, porque me encantas, porque te amo,
D E7 porque me gustas, porque disfruto ....estar a tu lado. (Requinto)
D E7 A A7 D E7 A
A7 D Eres divina
E7 A A7 con tu sonrisa que me fascina.
D Te vez tan linda
E7 A que no hay palabras que te describan.
D E7 Sacrificarme por un beso tuyo
A A7 sería un honor si estas a mi lado
D E7 A A7 y presumirle a la gente que estoy enamorado,
D E7 A porque me gustas, porque me encantas, porque te amo,
D E7 porque me gustas, porque disfruto ....estar a tu lado. (Requinto)
D E7 A A7 D E7 A ----------------------------------------------------------- ----------- Aquí les dejo esta buena rola que tocaba el compa ARIEL muy buena para dedicar y para la bohemia. Su compa CHARLYSAX
Este fichero es trabajo propio de su transcriptor y representa su interpretación personal de la canción. El material contenido en esta página es
para exclusivo uso privado, por lo que se prohibe su reproducción o retransmisión, así como su uso para fines comerciales.

© LaCuerda.net · Aviso Legal · Privacidad