Tablatura para Guitarra de Ariel Camacho: Me gustas mucho
Conexión · Inscripción
Letras y Acordes
Pantalla Completa
Imprimir
Versión Texto
Añadir Favorito
Otras Versiones

Mostrar Diagramas
Desfile Automático
Manipular Acordes
Formato del Texto


Me gustas mucho(TAB)

Ariel Camacho

calidad:
acmc0422
AUTOR: Ariel Camacho  corregir
ALBUM: desconocido
Enviado por Ramon
para que les salga igual


E|--12--10--9---9------5--5--0--0--5--5--0--5--0--5--5--
B|--14--12--10--10-----7--7--0--0--7--7--0--7--0--7--7--
G|------------------------------------------------------
D|------------------------------------------------------
A|------------------------------------------------------
E|------------------------------------------------------

E|----------------------------------------------------------
B|---3-3-3--2-2-0-0-0-----------------2-2-0-0-2-2-0-2-0-2-2-
G|--------------------1---1-1-2-4-4-------------------------
D|----------------------------------------------------------
A|----------------------------------------------------------
E|----------------------------------------------------------

E|----12---10-----9---------5--5--0--0--5--5--0--5--0--5--5--
B|--14-14-12---10--10-------7--7--0--0--7--7--0--7--0--7--7--
G|-----------------------------------------------------------
D|-----------------------------------------------------------
A|-----------------------------------------------------------
E|-----------------------------------------------------------

E|----------------------------------------------------------
B|---3-3-3--2-2-0-0-0---------------------------------------
G|--------------------1---1-1-2-4-4--2----------------------
D|----------------------------------------------------------
A|----------------------------------------------------------
E|----------------------------------------------------------

E|---2-0---------------0-2-0-----------4-2-0-2-0-------------
B|-------3-2-0---0-2-3-------3-2-3-2-0-----------3-2-3-2-0---
G|-------------2-------------------------------------------2-
D|-----------------------------------------------------------
A|-----------------------------------------------------------
E|-----------------------------------------------------------

E|---------------------------------------
B|---------------------------------------
G|---------------------------------------
D|-4-2-4-2-0-2-0---0---------------------
A|---------------4---4-2-0----4--2-------
E|----------------------------------4--0-


A D Me gustas mucho,
E7 A A7 me gustas tanto que ni te imaginas.
D Me gustas mucho,
E7 A A7 que soy capaz de darte mi vida.
D E7 Sacrificarme por un beso tuyo  
A A7 sería un honor si estas a mi lado
D E7 A A7 Y presumirle a la gente que estoy enamorado,
D E7 A porque me gustas, porque me encantas, porque te amo,
D E7 porque me gustas, porque disfruto ....estar a tu lado. E|--12--10--9---9------5--5--0--0--5--5--0--5--0--5--5-- B|--14--12--10--10-----7--7--0--0--7--7--0--7--0--7--7-- G|------------------------------------------------------ D|------------------------------------------------------ A|------------------------------------------------------ E|------------------------------------------------------ E|---------------------------------------------------------- B|---3-3-3--2-2-0-0-0-----------------2-2-0-0-2-2-0-2-0-2-2- G|--------------------1---1-1-2-4-4------------------------- D|---------------------------------------------------------- A|---------------------------------------------------------- E|---------------------------------------------------------- E|----12---10-----9---------5--5--0--0--5--5--0--5--0--5--5-- B|--14-14-12---10--10-------7--7--0--0--7--7--0--7--0--7--7-- G|----------------------------------------------------------- D|----------------------------------------------------------- A|----------------------------------------------------------- E|----------------------------------------------------------- E|---------------------------------------------------------- B|---3-3-3--2-2-0-0-0--------------------------------------- G|--------------------1---1-1-2-4-4--2---------------------- D|---------------------------------------------------------- A|---------------------------------------------------------- E|---------------------------------------------------------- E|---2-0---------------0-2-0-----------4-2-0-2-0------------- B|-------3-2-0---0-2-3-------3-2-3-2-0-----------3-2-3-2-0--- G|-------------2-------------------------------------------2- D|----------------------------------------------------------- A|----------------------------------------------------------- E|----------------------------------------------------------- E|--------------------------------------- B|--------------------------------------- G|--------------------------------------- D|-4-2-4-2-0-2-0---0--------------------- A|---------------4---4-2-0----4--2------- E|----------------------------------4--0-
A7 D Eres divina
E7 A A7 con tu sonrisa que me fascina.
D Te vez tan linda
E7 A que no hay palabras que te describan.
D E7 Sacrificarme por un beso tuyo
A A7 sería un honor si estas a mi lado
D E7 A A7 y presumirle a la gente que estoy enamorado,
D E7 A porque me gustas, porque me encantas, porque te amo,
D E7 porque me gustas, porque disfruto ....estar a tu lado. E|--12--10--9---9------5--5--0--0--5--5--0--5--0--5--5-- B|--14--12--10--10-----7--7--0--0--7--7--0--7--0--7--7-- G|------------------------------------------------------ D|------------------------------------------------------ A|------------------------------------------------------ E|------------------------------------------------------ E|---------------------------------------------------------- B|---3-3-3--2-2-0-0-0-----------------2-2-0-0-2-2-0-2-0-2-2- G|--------------------1---1-1-2-4-4------------------------- D|---------------------------------------------------------- A|---------------------------------------------------------- E|---------------------------------------------------------- E|----12---10-----9---------5--5--0--0--5--5--0--5--0--5--5-- B|--14-14-12---10--10-------7--7--0--0--7--7--0--7--0--7--7-- G|----------------------------------------------------------- D|----------------------------------------------------------- A|----------------------------------------------------------- E|----------------------------------------------------------- E|------------------------------------------------------------- B|---3-3-3--2-2-0-0-0------------------------------------------ G|--------------------1---1-1-2-4-4--2--1---------------------- D|-----------------------------------------4--2--0------------- A|--------------------------------------------------4--2--0---- E|------------------------------------------------------------- de nuevo el raymonds a las andadas
Este fichero es trabajo propio de su transcriptor y representa su interpretación personal de la canción. El material contenido en esta página es
para exclusivo uso privado, por lo que se prohibe su reproducción o retransmisión, así como su uso para fines comerciales.

© LaCuerda.net · Aviso Legal · Privacidad