Tablatura para Guitarra de Antílopez: Cadenas Empalabradas
Conexión · Inscripción
Letras y Acordes
Pantalla Completa
Imprimir
Versión Texto
Añadir Favorito
Otras Versiones

Mostrar Diagramas
Desfile Automático
Manipular Acordes
Formato del Texto


Cadenas Empalabradas(TAB)

Antílopez

calidad:
ntlp0191
AUTOR: Antílopez  corregir
ALBUM: desconocido
Enviado por juangu
                              Las vidas que da la vuelta...
|-----------------------------------------------------------
|---7--7--7--7--7-----------------------------------7----7--
|---8--8--8--8--8-----------------------------------8----8--
|---6--6--6--6--6-----------------------------------6----6--
|---7-----7-----7-----------------------------------7-------
|------7-----7-------------------------------------------7--

las vueltas que da la diva
---------------------------------|
-----------------------4---4-----|
-----------------------4---4-----|
-----------------------2---2-----|
-----------------------4---------|
---------------------------4-----|

   sin ticket de abarcamiento consumación incluida
|-------------------------------------------------------|
|--4-4------------------2----------------------2--------|
|--4-4------------------2----------------------2--------|
|--2-2-----------------------------------------1--------|
|--4-------------------------------------------2--------|
|----4------------------2----------------------2--------|

Amnesia para oídos sordos y pupilas gustativas
|-----------------------------------------------|
|------------------7--7--7--7--7------4---4-----|
|------------------8--8--8--8--8------4---4-----|
|------------------6--6--6--6--6------2---2-----|
|------------------7-----7-----7------4---------|
|---------------------7-----7-------------4-----|

atracos con alma blanca versos con lengua nativa
|--------------------------------------------------|
|--4-4-------------2----------------------2--------|
|--4-4-------------2----------------------2--------|
|--2-2------------------------------------1--------|
|--4--------------------------------------2--------|
|----4-------------2----------------------2--------|




No hay que hacerse derrocar...  que de alusiones se vive
|-------------------------------------------------------------|
|-------------------5------5-------------------------4--4-----|
|-------------------6------5-------------------------4--4-----|
|-------------------6------4-------------------------3--3-----|
|--------------------------5----------------------------4-----|
|-------------------5--------------------------------4--------|

Abrigo de mis Abrigos... cuentos premiums y plan pibe |-------------------------------------------------------------| |-------------2------2---------------------------------3------| |-------------2------2-----------------------------1---1------| |-------------1------1-----------------------------2----------| |--------------------2-----------------------------2---2------| |-------------2------2----------------------------------------| Y pago a incómodos plazos palabras cerca de nada |----------------------------------------------------| |-------------------5------5----------------4--4-----| |-------------------6------5----------------4--4-----| |-------------------6------4----------------3--3-----| |--------------------------5-------------------4-----| |-------------------5-----------------------4--------| silencios cómodos trazo cadenas “empalabradas” |-------------2-----------------------------------------------| |-------------2------2---------------------------------3------| |-------------2------2-----------------------------1---1------| |-------------1------1-----------------------------2----------| |--------------------2-----------------------------2---2------| |-------------2------2----------------------------------------| Te escribo herido diario acaso sobras maestras |-----------------------------------------------| |------------------7--7--7--7--7------4---4-----| |------------------8--8--8--8--8------4---4-----| |------------------6--6--6--6--6------2---2-----| |------------------7-----7-----7------4---------| |---------------------7-----7-------------4-----| como por harto de magia desde antros de que anochezcas |------------------2-------------------------------| |--4-4-------------2----------------------2--------| |--4-4-------------2----------------------2--------| |--2-2-------------1----------------------1--------| |--4--------------------------------------2--------| |----4-------------2----------------------2--------| Jugando a los cautos locos mi ficha en noches de choque |-----------------------------------------------| |------------------7--7--7--7--7------4---4-----| |------------------8--8--8--8--8------4---4-----| |------------------6--6--6--6--6------2---2-----| |------------------7-----7-----7------4---------| |---------------------7-----7-------------4-----| un braille de fin de curso pero tú no te Sófocles |------------------2-------------------------------| |--4-4-------------2----------------------2--------| |--4-4-------------2----------------------2--------| |--2-2-------------1----------------------1--------| |--4--------------------------------------2--------| |----4-------------2----------------------2--------| Bebo extrovertidos tóxicos vocaciones de vegano |----------------------------------------------------| |-------------------5------5----------------4--4-----| |-------------------6------5----------------4--4-----| |-------------------6------4----------------3--3-----| |--------------------------5-------------------4-----| |-------------------5-----------------------4--------| poéticamente correctas rimas por parte de hermano |-------------2-------------------------------------------| |-------------2------2---------------------------------3--| |-------------2------2-----------------------------1---1--| |-------------1------1-----------------------------2------| |--------------------2-----------------------------2---2--| |-------------2------2------------------------------------| Y pago a incómodos plazos palabras cerca de nada |----------------------------------------------------| |-------------------5------5----------------4--4-----| |-------------------6------5----------------4--4-----| |-------------------6------4----------------3--3-----| |--------------------------5-------------------4-----| |-------------------5-----------------------4--------| silencios cómodos trazo cadenas “empalabradas” |-------------2-----------------------------------------------| |-------------2------2---------------------------------3------| |-------------2------2-----------------------------1---1------| |-------------1------1-----------------------------2----------| |--------------------2-----------------------------2---2------| |-------------2------2----------------------------------------| Sonido “musicodélico”... en mi caracola “zero” |--------------------------------------------------| |--------------5------5-------------------4--4-----| |--------------6------5-------------------4--4-----| |--------------6------4-------------------3--3-----| |---------------------5----------------------4-----| |--------------5--------------------------4--------| suena cual “viejo sorround” (ropopom pound, ropopom pound)... |-----------------------------------------------------2-----| |--------------------2--------------------------------------| |--------------------2-----------------1--------------2-----| |--------------------2-----------------2--------------1-----| |--------------------------------------2--------------2-----| |-----------------------------------------------------2-----| mi universo para lelos -------------------------------------| --------------------7--7--7--7--7----| --------------------8--8--8--8--8----| --------------------6--6--6--6--6----| --------------------7-----7-----7----| -----------------------7-----7-------| Y pago a incómodos plazos palabras cerca de nada |----------------------------------------------------| |-------------------5------5----------------4--4-----| |-------------------6------5----------------4--4-----| |-------------------6------4----------------3--3-----| |--------------------------5-------------------4-----| |-------------------5-----------------------4--------| silencios cómodos trazo... |-------------------2----4--5------- |-------------------2----4--5----8-- |-------------------2----4--5----7-- |-------------------1----3--4------- |--------------------------------5-- |-------------------2----4--5----6-- “cadenas “empalabradas”... ohhh, oohh ----------------------------------------------| ----------------7---7-------7--7----------10--| ----------------8---8-------8--8----------8---| ----------------6---6-------6--6----------6---| ----------------7-----------7-------------7---| --------------------7----------7--------------|
Este fichero es trabajo propio de su transcriptor y representa su interpretación personal de la canción. El material contenido en esta página es
para exclusivo uso privado, por lo que se prohibe su reproducción o retransmisión, así como su uso para fines comerciales.

© LaCuerda.net · Aviso Legal · Privacidad