Tablatura para Bajo de Andrés Calamaro: Paloma
Conexión · Inscripción
Letras y Acordes
Pantalla Completa
Imprimir
Versión Texto
Añadir Favorito
Otras Versiones

Mostrar Diagramas
Desfile Automático
Formato del Texto


Paloma(BAJ)

Andrés Calamaro

calidad:
acal0445
AUTOR: Andrés Calamaro
ALBUM: Honestidad Brutal
Enviado por OSVALDO
EL BAJO ARRANCA EN 00:17 DESPUES DEL SOLO DE GUITARRA

G-------------------------------------------------------------
D---------------------------------------------3-33------------
A--3--33------------------7--77--8--87-3--33------------2-----
E----------3--33--5--55-----------------------------3-5---3---



G-------------------------------------------------------------
D---------------------------------------------3-33------------
A--3--33------------------7--77--8--87-3--33------------2-----
E----------3--33--5--55-----------------------------3-5---3---


G-------------------------------------------------------------
D---------------------------------------------3-33------------
L--3--33------------------7--77--8--87-3--33------------2-----
E----------3--33--5--55-----------------------------3-5---3---


G-------------------------------------------------------------
D---------------------------------------------3-33------------
A--3--33------------------7--77--8--87-3--33------------2-----
E----------3--33--5--55-----------------------------3-5---3---

ASI SE REPITE HASTA EL FINAL
Este fichero es trabajo propio de su transcriptor y representa su interpretación personal de la canción. El material contenido en esta página es
para exclusivo uso privado, por lo que se prohibe su reproducción o retransmisión, así como su uso para fines comerciales.

© LaCuerda.net · Aviso Legal · Privacidad