Tablatura para Bajo de Amen: Te quiero
Conexión · Inscripción
Letras y Acordes
Pantalla Completa
Imprimir
Versión Texto
Añadir Favorito
Otras Versiones

Mostrar Diagramas
Desfile Automático
Formato del Texto


Te quiero(BAJ)

Amen

calidad:
amen0068
AUTOR: Amen  corregir
ALBUM: desconocido
Enviado por max
weno ezo es
lo basiko ke uza
en toda la cancion
escuchala bn
y te daras kuenta
y tmbn tu ponle tu toke
como bajista XD!


intro / verso
G----------------------------------------
D----------567-7578-8753-3-333-334555----
A--3-3567-7--------------------------5---
E----------------------------------------

coro
G------------------------------------------------------
D--3-356-6/10------------3-345-5--------5/10101010-5---
A-------------3-320-00/7---------333333----------------
E------------------------------------------------------


cuando dice:anduve por las calles es azi
G----------------------------------------------------
D-----------567-777-7-------8-888-8753-333-334555----
A--7-777-7-----------23-333----------------------5---
E----------------------------------------------------



ATENCION!q
EN EL CORO ES 10 NO 1 Y 0
NOZ VEMOZ
EZO ES TOO
ESTA VA MI BROHER
ALONZO XD
kualkiercoza
a mi correo            max_2994@hot...
atte: MAX del zur dl PERU!XD
Este fichero es trabajo propio de su transcriptor y representa su interpretación personal de la canción. El material contenido en esta página es
para exclusivo uso privado, por lo que se prohibe su reproducción o retransmisión, así como su uso para fines comerciales.


© LaCuerda.net · Aviso Legal · Privacidad