Tablatura para Guitarra de Alejandro Sanz: Mi soledad y yo
Conexión · Inscripción
Letras y Acordes
Pantalla Completa
Imprimir
Versión Texto
Añadir Favorito
Otras Versiones

Mostrar Diagramas
Desfile Automático
Manipular Acordes
Formato del Texto


Mi soledad y yo(TAB)

Alejandro Sanz

calidad:
asnz0287
AUTOR: Alejandro Sanz
ALBUM: 3
Enviado por gonzalo
Mi soledad y yo - Alejandro Sanz

Solo de guitarra - Versión Ludovico Vagnone


e ---------------------------------------4--7p4--7p4--7p4--7--------
B -------------------------------7bend-----------------------4/7vvv--
G ------------------------/4--3--------------------------------------
D -----4----4h6vvv---------------------------------------------------
A --/6---6-----------------------------------------------------------
E --------------------------------------------------------------------

En esta sección estira la nota y toca sosteniendo la estirada
                   full       …….mantiene………            1/4
e ------7-----9----9bend--9--9bend---9---9bend------9---8bend----------------
B ---7----7----7----------------------------------------------9--7-----------
G --------------------------------------------------------------------8---5--
D ---------------------------------------------------------------------------
A ---------------------------------------------------------------------------
E ---------------------------------------------------------------------------

e -----------------------------------------------------------------------
B -----------------------------------------------------------------------
G -------------------------------------------------------------13-15-16--
D --------------------------11----11-13---11-13-14---13-14-16------------
A --11-13-14---13-14----14-----------------------------------------------
E -----------------------------------------------------------------------

e ------------------------------------------------------------------
B -----------------------------------14-16-17-16-14-----------------
G ---15-13------------------13-15-16----------------16-15-13-15-16--
D -----------16-14-13-14-16-----------------------------------------
A ------------------------------------------------------------------
E ------------------------------------------------------------------

e ------------------16-18-19-18-16-------------------------------------
B ---14-16-17-------------------------19-16------19bend-19bend---------
G -------------------------------------------18------------------------
D ---------------------------------------------------------------------
A ---------------------------------------------------------------------
E ---------------------------------------------------------------------

Cuando hace los arpegios los repite varias veces y termina estirando

e -----------16h20p16--------------16h20p16---20p16---------------------
B ------16-----------------------16------------------------19bend----
G ---17-----------------------17--------------------------------------
D ----------------------------------------------------------------------
A ----------------------------------------------------------------------
E ----------------------------------------------------------------------
                                   Full    1/4
e -----------------------9b11r9---9bend---8bend---------------------------
B ---7----7h9p7--7------------------------------------9--7----------------
G ----------------------------------------------------------------8---5---
D ------------------------------------------------------------------------
A ------------------------------------------------------------------------
E ------------------------------------------------------------------------

e --------7------------------------------------9b11r9-----9bend------
B --/9---------/9vvv-------/11vvvv-----------------------------------
G -------------------------------------------------------------------
D -------------------------------------------------------------------
A -------------------------------------------------------------------
E -------------------------------------------------------------------

Cualquier consulta a mi correo: gonzamendo89@hotmail.com
Este fichero es trabajo propio de su transcriptor y representa su interpretación personal de la canción. El material contenido en esta página es
para exclusivo uso privado, por lo que se prohibe su reproducción o retransmisión, así como su uso para fines comerciales.

© LaCuerda.net · Aviso Legal · Privacidad