Acordes de Guitarra » A »Alejandro Filio » Pudo ser (Tab)

Pudo ser
Alejandro Filio

Letras, Notas, Punteos, Tablaturas y Acordes de Guitarra (Tabs & Chords)

  • Letra y Acordes
    Intro  D/F# G6  D/F#  G6  Bm   A  G  D/F#
    
    D/F#    G6
    Pudo ser,
                       D/F#     G6
    que montada la noche viajó,
                     Bm
    desafiando a la imaginación,
          A                G
    pudo ser, o tal vez despertó,
                        D/F#       C  A
    justo tras de una puesta de sol,
                      D    G6
    esta ingenua canción.
    
    
    Pudo más que la sombra y la luz,
    se quedó ante tus ojos y tú,
    ni siquiera, le viste flotar,
    por el centro de la gravedad,
    
  • Tablatura
       F#/D           G6                    F#/D               G6                     Bm
    
    E-------------------------0---------------------------------------0--------------2---------
    B----3----3----3--0---2-3---3-2-0---0-----3----3-----3-----0--2-3---3-2-0---0----3------2-3
    G----2----2--2----0---------------2-------2----2---2-------0--------------2------4-----4--
    D--------------------------------------------------------------------------------4----4---
    A-----------------2----------------------------------------2---------------------2---2----
    E--2---2----------3---------------------2----2-------------3---------------------2-2------
    
                       A                        G                  F#/D
    ----2--------2-------------0-----0------------------3-3-2--0-------
    ----3-----2-3-3----2----2-3--2-3-----2--0---0---1--------------3---
    ----4----4-----4---2------------------------0---0--------------2---
    ----4---4----------------------------------------------------------
    ----2--2-----------0----0----0-------0--0---2----------------------
    ----2-2-------------------------------------3---3---3-3-3-3----2---
    
    
    
    
    
  • Tablatura
        D/F#     G                 D/F#     G               Bm
    E---2----2---3-----------------2----2---3---------------------------|
    A-------------------------------------------------------2-----------|
    D--------------------------------------------------------4----------|
    G----2-2-2---0-----------2h0----2-2-2---0----------2h0----4-----4---|
    B------3-3---0-2h3-3h2h0----------3-3---0-2h3-3h2h0---------0h3---3-|
    e-----------------0--------------------------0-----------------2----|
    
         A                   G                F#/D     G
    E----------------------3--3--3--3-3-3-3----2----2--3-----|
    A----0---------------------------------------------------|
    D--------------------------------------------------------|
    G----2----------2-0----0--0--0--------------2-2-2--0-----|
    B----2-2h3-3h2h0-------0--2--3--3-3-3-0-------3-3--0-----|
    e---------0---------------------3-2-0-0------------------|
                                                  Pudo ser
          G
    E-----3--3---3--3--3-3-----2----2--3-----|
    A----------------------------------------|
    D----------------------------------------|
    
  • +
    ¡Colabora con nosotros!
    Envíanos tu versión de esta canción

Letra de Pudo ser
Pudo ser,
que montada la noche viajó,
desafiando a la imaginación,
pudo ser, o tal vez despertó,
justo tras de una puesta de sol,
esta ingenua canción.
Pudo más que la sombra y la luz,
se quedó ante tus ojos y tú,
ni siquiera, le viste flotar,
por el centro de la gravedad,
que nos da la razón.
Fue por eso que vino hasta aquí,
suplicando tonada y color,
como ves te la voy a decir,
si le das el favor, de existir.
Pudo ser,
que a tu lado durmió,
como cuando nos llama una flor,
no pudiste, escucharla y después,
despertaste llorando sin más,
que la prisa de andar.
Arrebatando otro espacio mortal,
otro número clave, otro dios,
otra puerta, que te haga escapar,
para luego de nuevo volver,
hasta el mismo lugar.



© LaCuerda.net · Aviso Legal · Privacidad