Acordes de Guitarra » A »Alejandro Filio » La Puerta (Tab)

La Puerta
Alejandro Filio

Letras, Notas, Punteos, Tablaturas y Acordes de Guitarra (Tabs & Chords)

  • Letra y Acordes
    C                   F   G7
    Si es que pinsas venir
                         C
    Deja un rastro a tu paso
                       F   G7
    Por si quieres volver
                      F           C
    Por si temes perder,   al fracaso
    
                         A# 
    Por si es tanto el dolor
                      G         C 
    Por si rompe el amor  tu encanto
                    A# 
    No maldigas de mas
                  G                 C
    Y recuerda la paz cueeeestaa  tanto
    
    C                    F   G7       
    Si es que piensas venir
    
  • Letra y Acordes
    Intro: D/F# … G6 … A … D/F#  … (2 VECES)
    
                         G6   A
    Si es que piensas venir
                         D/F#
    Deja un rastro a tu paso
                       G6
    Por si quieres volver
                      A           D
    Por si temes perder…   al fracaso
    
                         C
    Por si es tanto el dolor
                      A         D
    Por si rompe el amor…  tu encanto
                    C
    No maldigas de más
                  A                      (Intro)
    Y recuerda la paz… …  … cuesta  tanto.
    
    
  • Tablatura
         D/F#                         G                                 A                   D/F#
    
    e--------------------------------------0------------------------------------------------------|
    B------------3----2---2h0---------0---------0----------0------------0----------2^0------------|
    G---------2----------------2--------------0---------0------------0--------------------2---2---|
    D----0----------------------------------------------------------------------2-------2---------|
    A---------------------------------------------------------0h2------------0--------------------|
    E----2------------2---------------3-----------0h2-----------------------------------------2---|
    
    
    Se repite casi igual...                                                      A       
    
    e--------------------------------------0--------------------------------------------0----------|
    B------------3----2---2h0---------0---------0----------0------------0----------0h2-----2-------|
    G---------2----------------2--------------0---------0------------0-----------------------------|
    D----0----------------------------------------------------------------------2------------------|
    A---------------------------------------------------------0h2------------0---------------------|
    E----2------------2---------------3-----------0h2----------------------------------------------|
    
    
    
  • +
    ¡Colabora con nosotros!
    Envíanos tu versión de esta canción

Letra de La Puerta
Si es que pinsas venir
Deja un rastro a tu paso
Por si quieres volver
Por si temes perder, al fracaso
Por si es tanto el dolor
Por si rompe el amor tu encanto
No maldigas de mas
Y recuerda la paz cueeeestaa tanto
Si es que piensas venir
La que cuando sali
A buscarte esa vez, quedo entreabierta
La que supo de sol
La que abrio una canción mal hecha
La que pudo mirar
Tu descalza verdad, y te espeeeeeeeeeraaaa
La que supo de sol
La que abrio una canción mal hecha
La que pudo mirar
Tu descalza verdad, y hoy te espeeeeeeraaaaaa
uriririreere



© LaCuerda.net · Aviso Legal · Privacidad