Tablatura para Guitarra de Alejandro Fernandez: Jamás te vi tan linda
Conexión · Inscripción
Letras y Acordes
Pantalla Completa
Imprimir
Versión Texto
Añadir Favorito
Otras Versiones

Mostrar Diagramas
Desfile Automático
Manipular Acordes
Formato del Texto


Jamás te vi tan linda(TAB)

Alejandro Fernandez

calidad:
afer0412
AUTOR: Alejandro Fernandez  corregir
ALBUM: Origenes (2002)
Enviado por Jose
Les mando este requinto, espero que les sirva,
despues les mando los acordes corectos, ya que la 
otra transcripcion es pesima.
100% oido




A------5-5-3-2-2-0-2----7-7-5-5-3-3-2-3---9--9--7-7-5-5-3-5--
D------7-7-5-3-3-2-3----8-8-7-7-5-5-3-5--10-10--8-8-7-7-5-7--
G------------------------------------------------------------
B------------------------------------------------------------
e------------------------------------------------------------

A-----10-10--9--9-7-5-7---12-12-10--9-7--9----9-7-5-3-2--------
D-----12-12-10-10-8-7-8---14-14-12-10-8-10---10-8-7-5-3--------
G------------------------------------------------------------
B------------------------------------------------------------
e------------------------------------------------------------


Dudas comentarios, seran bien recibidas 
antonioalcaraz23@hotmail.com
Este fichero es trabajo propio de su transcriptor y representa su interpretación personal de la canción. El material contenido en esta página es
para exclusivo uso privado, por lo que se prohibe su reproducción o retransmisión, así como su uso para fines comerciales.

© LaCuerda.net · Aviso Legal · Privacidad