Letra y Acordes de Los Alegres de la Sierra: 30 Cartas
Conexión · Inscripción
Letras y Acordes
Pantalla Completa
Imprimir
Versión Texto
Añadir Favorito
Otras Versiones

Mostrar Diagramas
Desfile Automático
Manipular Acordes
Formato del Texto


30 Cartas

Los Alegres de la Sierra

calidad:
adls0701
AUTOR: Los Alegres de la Sierra  corregir
ALBUM: desconocido
Enviado por dosxxguy
requito:

4:-33--------------------------------------------------
3:----2------------------------------------------------
2:------1-6-66-6-8-6-8-8-6-5--1-1-11--3-2-3-2-0-3-2-02-
1:--------5-55-5-6-5-6-6-5-3--0-0-00-------------------

4:-33---------------------------------------------------
3:----2-------------------------------------------------
2:------1-6-66-6-8-6-8-8-6-5--13-1313-13--11-10-11-10-8-6-
1:--------5-55-5-6-5-6-6-5-3--12-1212-12--10--8-10--8-6-5-


   6-----     6-----     6-----     6-----
   5-----     5---3-     5-----     5---1-
   4---3-     4---2-     4---5-     4---3-
F: 3---2- C7: 3---3- Gm: 3---3- Bb: 3---3-
   2---1-     2---1-     2---3-     2---3-
   1---1-     1-----     1---3-     1---1-

F C7 Mi ranchito quedo abandonado desde que te fuiste muy triste quedo mujer
Gm C7 F El jacal donde el amor nos dimos esta tan solito desde que ya no te ve
F C7 Ya la sombra que daba el naranjo donde nos sentábamos a platicar mi amor
Gm C7 F Por no verte se fue marchitando y se fue secando igual que mi corazón
F C7 Bb C7 F Ya no vendrás y tu recuerdo me persigue a donde voy
F C7 Bb C7 F Sufro al mirar y hasta los campos me preguntan cuando vuelves
C7 F Y yo no se que contestar porque no se si volverás
C7 F lo mas seguro es que ya no regreses requinto....
F C7 Treinta cartas ya van que te mando y de ellas no tengo aun su contestación
Gm C7 F Será porque no las has leído porque no te causan ninguna preocupación
F C7 Bb C7 F Ya no vendrá y su recuerdo me persigue a donde voy
F C7 Bb C7 F Sufro al mirar y hasta los campos me preguntan cuando vuelves
C7 F Y yo no se que contestar porque no se si volverá
C7 F lo mas seguro es que ya no regrese
C7 F Y yo no se que contestar porque no se si volverá
C7 F lo mas seguro es que ya no regrese. C7 F
Este fichero es trabajo propio de su transcriptor y representa su interpretación personal de la canción. El material contenido en esta página es
para exclusivo uso privado, por lo que se prohibe su reproducción o retransmisión, así como su uso para fines comerciales.


© LaCuerda.net · Aviso Legal · Privacidad