Acordes de Guitarra » A »Abel Zavala » Viviré (Tab)
  • Letra y Acordes
    Intro: F#m D A E (bis)
    
        F#m        D            A
    Viviré, dando siempre a conocer
         E         F#m
    tu amor y compasión
            D        A            E
    quiero ser ese canal de bendición
    Bm
      Y que de ti las personas reciban
    E                                    D
      la gracia que ellos tambien necesitan,
       A           E
    para saciar su vida
    
        D        A                 E
    Viviré cada día que me das de vida,
          D      A                     E   F#m  E
    para dar el amor que el mundo necesita,
          D      A              E
    
  • Letra y Acordes
    Intro: F#m D A
    
        F#m        D            A
    Viviré, dando siempre a conocer
         E/G#     F#m
    tu amor y compasión
            D        A            E
    quiero ser ese canal de bendición
    Bm
      Y que de ti las personas reciban
    E
      la gracia que ellos tambien necesitan,
    D   A           E
     para saciar su vida
        //CORO//
        D        A                 E  Esus E
    Viviré cada día que me das de vida,
          D      A                     E   F#m  E
    para dar el amor que el mundo necesita,
          D      A              E    Esus  E
    
  • Tablatura
    Guitar Solo
    
    E||-------------------------------------------|
    B||-------------------------------------------|
    G||------9-11-9----------------13-14-16-14-13-|
    D||----7----------7-11-9-7--------------------|
    A||--9----------9----------11-----------------|
    E||-------------------------------------------|
    
    
    
    -------------------------------------12----
    ----------------------------10-14-14-
      --14-13-----------9-11-9-11--------
       --------14-16---7---------------------
    --------------9-------------------------
    -----------------------------------------
                                                 esta parte es rapida
    17-14-17-14--------------------------------------------
    ----12-------------17-14-17-14------------------------
    ----------------------------------------16-14----16-1---
    --------------------------------------------------------16
    --------------9--------------------------------------------
    ------------------------------------------------------------
    
    --------------||
    --------------||
    --
  • Tablatura
    Intro: F#m D A E/G#
    e|---------------------------------------------------
    B|----5-7-------2-------------------5-7-------2------
    G|---7---2-----2-2-4-2-4-6-4-2-----7---2-----2-2-4---
    D|--7---------2---2---2-----------7---------2---2----
    A|-5-----------------------------5-------------------
    E|-----------5-----------------------------5---------
    
        F#m7        D            A
    Viviré, dando siempre a conocer
         E/G#     F#m
    Tu Amor y Compasión
            D        A            E
    quiero ser ese canal de bendición
    
    e|-------------------------
    B|-------5-7-------2-------
    G|------7---2-----2-2-4----
    D|-----7---------2---2-----
    A|----5--------------------
    
  • +
    ¡Colabora con nosotros!
    Envíanos tu versión de esta canción

Letra de Viviré
Viviré, dando siempre a conocer
tu amor y compasión
quiero ser ese canal de bendición
Y que de ti las personas reciban
la gracia que ellos tambien necesitan,
para saciar su vida
Viviré cada día que me das de vida,
para dar el amor que el mundo necesita,
contaré cada una de tus maravillas,
y a tus pies el mundo veré venir
Que al hablar, mis palabras, mi canción
hablen siempre al corazón,
demostrando que le buscas con amor
Quiero anunciar el mensaje de vida,
ese perdón que tu das sin medida,
a aquel que lo reciba
Viviré cada día que me das de vida,
para dar el amor que el mundo necesita,
contaré cada una de tus maravillas,
y a tus pies el mundo veré venir
Pasaje de guitarra las notas son: F#m A C#m E
Viviré cada día que me das de vida,
para dar el amor que el mundo necesita,
contaré cada una de tus maravillas,
y a tus pies el mundo veré venir
uuuuuhhh viviré para ti
viviré para ti
viviré
Se mantiene y termina en F#m
Espero que se entienda y les sea de gran bendición
para esta generación en avivamiento
y sed del Espiritu Santo. Amen



© LaCuerda.net · aviso legal · privacidad · contacto