Acordes de Guitarra » 0-9 »18 Kilates » Pobre Corazón (Tab)

Pobre Corazón
18 Kilates

Letras, Acordes y Tabs para Guitarra, Bajo y Ukulele

  •                                       LA
    6|---------------|---------------------0
    5|---------------|----------------------0
    4|------- -------|-----------------------2
    3|------- -------|------ -----------------2
    2|--- ---12-12-10-12-10-12-10-12-10-12-----2
    1|--12-11--------|--- ----------------------0
    
                                       MI
    6|---------------|-----------------0
    5|---------------|------------------2
    4|------- -------|-------------------2
    3|------- -------|------ -------------1
    2|--- ---12-12-9-12-9-12-9-12-9-12-----0
    1|--12-11--------|--- ------------------0
    
                                          LA
    6|---------------|---------------------0
    5|---------------|----------------------0
    4|------- -------|-----------------------2
    
  • +
    ¡Colabora con nosotros!
    Envíanos tu versión de esta canción

Letra de Pobre Corazón
Dakos Music uu uu que dificil es aceptar el adios baby
pero este corazon nunca dejara de buscarte you know.
La situacion es dificil y aguantarla no puedo oo
ya no te noto la misma dejarte yo no quiero oo
por favor mirame mientras te voy hablando que estoy
agonizando por tu adios.
Como explicarle al corazon que hoy te vas
como decirle que sin ti puede seguir
como fingir para que no se de ni cuenta
que desde hoy ya no estaras junto a mi no.
(SIGAN LOS ACORDES SEGUN EL RITMO SON LOS MISMOS)
Estoy vagando por las calles noce donde ir
desorientado confundido no se que hacer
pues lo unico que hago es pensar en ti
y este corazon a gritos va llamandote.
En mi mente esta claro que ya hoy te vas
es mi corazon que no lo quiere aceptar
pues le hace falta tu cariño y tu calor
dime como aliviar el dolor.
Como explicarle al corazon que hoy te vas
como decirle que sin ti puede seguir
como fingir para que no se de ni cuenta
que desde hoy ya no estaras junto a mi no.
No te imaginas como esto afecta mi corazon
como aliviar con esta separacion
aun recuerdo esa primera vez
los dos envueltos y tu tocandome.
Y ahora me encuentro aqui solo y vacio
agonizando no aguanto este frio
Dios mio ayudame que esto me mata
dime porque esto me pasa.
Y ahora se va se va se va y se va
y lo mas que me duele que no la vuelvo a ver jamas.
Y hoy se va se va se va y se va
y lo mas que me duele que no la vuelvo a ver jamas.
Como explicarle al corazon que hoy te vas
como decirle que sin ti puede seguir
como fingir para que no se de ni cuenta
que desde hoy ya no estaras junto a mi no.
Como explicarle al corazon que hoy te vas
(que hoy te vas)
como decirle que sin ti puede seguir
(puede seguir)
como fingir para que no se de ni cuenta
(se de ni cuenta)
que desde hoy ya no estaras junto a mi
(junto a mi).
BUENO..ESE ES EL TEMA CON EL TONO ORIGINAL
LAS TABLATURAS NO SON DEL TEMA PERO SUENAN BIEN..
ASI QUE SI KIEREN ASERLAS TA TODO PIOOOLA..JAJA
SI KIEREN Q LE SAQUE UN TEMA..PIDAMENLO X FACE!
Cristian alpire..
NOS VEMOS! Cris_LAACADE!




[Pobre Corazón chords][Pobre Corazón cifra]
© LaCuerda.net · aviso legal · privacidad · es · en · pt · contacto
DINAMICO