Tablatura para Guitarra de Zona Ganjah: Vibra Positiva
Conexión · Inscripción
Letras y Acordes
Pantalla Completa
Imprimir
Versión Texto
Añadir Favorito
Otras Versiones

Mostrar Diagramas
Desfile Automático
Manipular Acordes
Formato del Texto

Zona Ganjah
Vibra Positiva(TAB)
calidad:
zgan0042
AUTOR: Zona Ganjah  corregir
ALBUM: desconocido
Enviado por felkev
Esta es la intro:

e |-----10-7----------5-5--7--5------9-7-----------------------------|
B |-----------10----7----------------------10--8-10-8-10-11-12-------|
G |--7-----------------------------6---------------------------------|
D |------------------------------------------------------------------|
A |------------------------------------------------------------------|
E |------------------------------------------------------------------|

e |--14--12-----------15--12-12-----|
B |-----------15--------------------|
G |---------------------------------|
D |---------------------------------|
A |---------------------------------|
E |---------------------------------|

Tablatura creada por Felipe Recabal y Kevin Almendras (Facebook)

consultas a: http://ask.fm/kevinalmendras

pd: es nuestra primera tablatura , esperamos que esté bien y entendible ya chao
Este fichero es trabajo propio de su transcriptor y representa su interpretación personal de la canción. El material contenido en esta página es
para exclusivo uso privado, por lo que se prohibe su reproducción o retransmisión, así como su uso para fines comerciales.
© LaCuerda.net · Aviso Legal · Privacidad