Tablatura para Guitarra de William Luna: Linda Wawita
Conexión · Inscripción
Letras y Acordes
Pantalla Completa
Imprimir
Versión Texto
Añadir Favorito
Otras Versiones

Mostrar Diagramas
Desfile Automático
Manipular Acordes
Formato del Texto

William Luna
Linda Wawita(TAB)
calidad:
wlun0453
AUTOR: Juan Carlos Fernandez
ALBUM: desconocido
Enviado por Gianka
Bueno ya que me la estaban pidiendo en youtube
http://www.youtube.com/watch?v=VtarFL_Qgj

aqui por fin la pude transcribir
en la compu espero q sea de ayuda para ustedes, escuchen la cancion para que
puedan saber q partes tocar durante el intro

(La cancion se toca con el capo en el 1er traste o pueden solamente modificarlo
y subirle medio tono a la cancion y empezaria con A# Cm F A# etc...


Linda Wawita

Capo 1
A Bm E A
Bm E A A

 A    *            Bm              E               A                      x2
|----|------------5-4---2-|-5-5-4-4---|-----------5-3-5---------|-5-5-4-4---|
|--0-|-2-2-2-3--5-----5---|---------5-|-------2-3-------5-(5-5)-|---------5-|
|-2--|--------------------|-----------|-4-4-4-------------------|-----------|
|----|--------------------|-----------|-------------------------|-----------|
|----|--------------------|-----------|-------------------------|-----------|
|----|--------------------|-----------|-------------------------|-----------|
                                                                         *x2
        Bm          E *        A               x3   *        A
|-5-4---2-|-2-0-------||-5-4-5---|-----------|     ||-------0-5-|
|-----5---|-----3-2-0-||-------5-|-5-5-2-3-5-|     ||---2-3-----|
|---------|-----------||---------|-----------|     ||-----------|
|---------|-----------||---------|-----------|     ||-----------|
|---------|-----------||---------|-----------|     ||-----------|
|---------|-----------||---------|-----------| x3  ||-----------|

A
Al recorrer tu carita bonita
Bm
cierro los ojos y sueño
          E                A
que estás conmigo linda wawita

A
cuando alumbran las estrellas de noche
Bm
y recuerdo tu sonrisa de niña
 E                          A
solo suspiro por ti linda wawita

  Bm              E
No sé si me recordaras
 A
o por donde estarás
     Bm               E               A
solo se que siempre serás mi linda wawita...

(se vuelve a repetir todo desde el intro)

A Bm E A

  Bm              E
No sé si me recordaras
 A
o por donde estarás
     Bm               E               A
solo se que siempre serás mi linda wawita...
Envía el tono de "Linda Wawita" a tu celular/móvil
Este fichero es trabajo propio de su transcriptor y representa su interpretación personal de la canción. El material contenido en esta página es
para exclusivo uso privado, por lo que se prohibe su reproducción o retransmisión, así como su uso para fines comerciales.
© LaCuerda.net · Aviso Legal · Privacidad