Tablatura para Guitarra de Warcry: El guardián de Troya
Conexión · Inscripción
Letras y Acordes
Pantalla Completa
Imprimir
Versión Texto
Añadir Favorito
Otras Versiones

Mostrar Diagramas
Desfile Automático
Manipular Acordes
Formato del Texto


Warcry
El guardián de Troya(TAB)
calidad:
warc0172
AUTOR: Victor Garcia
ALBUM: Alea Jacta est (2004)
Enviado por §ammae£
ya px la cancion es recontra xvre, y no me gustaba como sonaba
en los acordes de la otra k mandaron, trate de sacarlo pa una
sola guitarra y ojala k sten bn px, la song empieza aki:

E|---------------------------------|
B|---------------------------------|
G|-------0---------------0---------|
D|---2-4-----2-------2-4-----2-----|
A|-2-------2---2---2-------2---2---|
E|-------0-------0-------0-------0-|

E|-------------------------------------------------|
B|-----------------------0-------------0-0h1-------|
G|-------0-------2---2-4-----------0-2---------2---|
D|---2-4---4-2-4---2---------2---------------2---2-|
A|-2-------------0---------2---2-----------0-------|
E|-------0---------------0-------0-----------------|

E|--------------------------------------------------|
B|-0------0-----------------------------------------|
G|----2/4-------0---------2---2-0-4---4-------------|
D|------------2---2---2-----2-------4---0-2---2-----|
A|----0-----2-------2---2-0-------2---------2---2---|
E|-0------0-------------------------------0-------0-|

E|-----------------------------------------------------|
B|-----0-0h1-------0-----0-----------------------------|
G|---2---------2-----2/4-------0---------2---2-0-4---4-|
D|-2---------2---2-----------2---2---2-----2-------4---|
A|---------0---------0-----2-------2---2-0-------2-----|
E|-----------------0-----0---------------------0-------|


esto es lo k hace la guitarra electrica:

E|----------------------------------------------------|
B|----------------------------------------------------|
G|----------------------------------------------------|
D|------4-5--5------4-5--5-------4-5-4---4-7-5-4-7-9v-|
A|----7-----------7------------7-------7--------------|
E|-7b----------7b----------7b-------------------------|

E|---------------------------------------------|
B|---------------------------------------------|
G|---------------------------------------------|
D|---7-9-9/10v----9--7/9-9---5-----------------|
A|-7---------------------------7-----12v-9-7-6-|
E|---------------------------------------------|

E|-------|16x
B|-------|
G|-------|
D|-5p4p2-|
A|-------|
E|-------|



Destino cruel que me obliga a defender
los frutos de una traición de un desatino
por una mujer todo un reino condenó
no entiendo la situación ni la he elegido

Soy el guardián nadie impera en mi ciudad
y quien dentro quiera entrar peleara conmigo
no hay una razón solo tengo una misión
combatir hasta el final al enemigo

E|-------|8x
B|-------|
G|-------|
D|-5p4p2-|
A|-------|
E|-------|

Mucho dura ya la batalla la presión
nunca han visto un corazón tan vengativo
no me toca ami el buscar la solución
solo sigo una razón lucho por los mios

Soy el guardián nadie impera en mi ciudad
y quien dentro quiera entrar peleara conmigo
no hay una razón solo tengo una misión
combatir hasta el final al enemigo

Puede que hoy llegue el final
puede que el día yo no vea acabar
mas si ese es mi destino  no lo haré esperar

La base del solo ya la conocen, y el solo en si aun no lo he
sacado del todo... (sorry ps)


Ya se acabó triste final
caigo en la tierra con una herida mortal
  mas si ese es mi destino  no lo haré esperar

siento llegar la oscuridad
muero tranquilo he luchado hasta el final
 por mi honor doy la vida no puedo dar maaaaaaas!


gracias a la inspiracion k me brinda esa niña bonita,
esta cancion es fruto de su belleza.. ya ps kien sake el solo
me lo manda ps...
Este fichero es trabajo propio de su transcriptor y representa su interpretación personal de la canción. El material contenido en esta página es
para exclusivo uso privado, por lo que se prohibe su reproducción o retransmisión, así como su uso para fines comerciales.

© LaCuerda.net · Aviso Legal · Privacidad