Tablatura para Guitarra de Voz de Mando: Eres mi cenicienta
Conexión · Inscripción
Letras y Acordes
Pantalla Completa
Imprimir
Versión Texto
Añadir Favorito
Otras Versiones

Mostrar Diagramas
Desfile Automático
Manipular Acordes
Formato del Texto

Voz de Mando
Eres mi cenicienta(TAB)
calidad:
vdmd0121
AUTOR: Voz de Mando
ALBUM: Y Ahora Resulta (2013)
Enviado por adan
Intro       A F# D E F#

                 A                            D
No llegas en carruaje, es algo muy real y distinto,
                     E                           A
eres linda sin maquillaje, luces bien con tu vestido.
                D                       A
Te prefiero sencilla, sin joyas ni zapatillas,
                    Bm                        E
para mí naciste perfecta, para mí eres una Princesa.

                         A                       D
El amor de mi vida, eres tú, eres tú la de mis sueños,
                   E                                A
no quiero ser tu príncipe azul, ni aparentar ser perfecto;
                    D                          A
tú me aceptas como soy, y en verdad te lo agradezco,
                 Bm                          E
que me ames como yo, que me permitas ser tu dueño.

                 A               E/G#   F#m
Eres tu mi cenicienta, la niña que yo soñaba,
                     D               Bm              E
la mujer de mirada tierna, que me endulza con sus palabras.
                       A            /E              F#m
La que me arrulla mis noches, eres tu mi cuento de hadas,
                            D           E
no importa que lleguen las doce, eh eh ehh!
                   Bm     E
el hechizo no se acaba.

SOLO
e|---------------------------------------------------
B|-5-5-5-15-15-15-14-13-14p13------------------------
G|---------------------------------------------------
D|---------------------------------------------------
A|---------------------------------------------------
E|---------------------------------------------------

e|---------------------------------------------------
B|-5-5-5-15-15-15-14-13-12---------------------------
G|---------------------------------------------------
D|---------------------------------------------------
A|---------------------------------------------------
E|---------------------------------------------------

e|---------------------------------------------------
B|-15-15-1514-13-12-14p12----------------------------
G|---------------------------------------------------
D|---------------------------------------------------
A|---------------------------------------------------
E|---------------------------------------------------

e|---------------------------------------------------
B|-12-12-12-12-12-14-14-15-15-14p13------------------
G|---------------------------------------------------
D|---------------------------------------------------
A|---------------------------------------------------
E|---------------------------------------------------

e|---------------------------------------------------
B|-5-5-5-15-15-15-14-13-14p13------------------------
G|---------------------------------------------------
D|---------------------------------------------------
A|---------------------------------------------------
E|---------------------------------------------------

e|---------------------------------------------------
B|-5-5-5-15-13-15-13-15-16-15-15-15-15-14-13-12-14p12
G|---------------------------------------------------
D|---------------------------------------------------
A|---------------------------------------------------
E|---------------------------------------------------

e|---------------------------------------------------
B|-15-14-15-15-15-15-14-13-12-13-14p12---------------
G|---------------------------------------------------
D|---------------------------------------------------
A|---------------------------------------------------
E|---------------------------------------------------
                         A                    D
El amor de mi vida eres tú, eres tú la de mis sueños,
                     E                               A
no quiero ser tu príncipe azul, ni aparentar ser perfecto,
                 D                        A
te prefiero sencilla, sin joyas ni zapatillas,
                  Bm                           E
eres bella eres perfecta, eres mi ángel mi princesa.

                     Bm      E
el hechizo no se acaba,
                    G      A
el hechizo no se acaba.
Envía el tono de "Eres mi cenicienta" a tu celular/móvil
Este fichero es trabajo propio de su transcriptor y representa su interpretación personal de la canción. El material contenido en esta página es
para exclusivo uso privado, por lo que se prohibe su reproducción o retransmisión, así como su uso para fines comerciales.
© LaCuerda.net · Aviso Legal · Privacidad