Tablatura para Guitarra de Los Voceros de Cristo: Loor a tí mi Dios
Conexión · Inscripción
Letras y Acordes
Pantalla Completa
Imprimir
Versión Texto
Añadir Favorito
Otras Versiones

Mostrar Diagramas
Desfile Automático
Manipular Acordes
Formato del Texto

Los Voceros de Cristo
Loor a tí mi Dios(TAB)
calidad:
vdcr0161
AUTOR: Los Voceros de Cristo  corregir
ALBUM: desconocido
Enviado por Marvin
voTen Xfa

aQui lEs dEjo lA iNtRo dE lOoR a tI mI Dios.
pOngan eL caPo a mAnEra q lEs qUedE "B" bemol
eN forMa dE "E".

eL nOmbRe dE lAs cUerDas lAs pUse cOn nUmerOs ParA nO
cOnfUndIrlOs pOr sI uSan gUitArra o rEqUinTo:

1: cuerda mas pequeña
6: cuerda mas grande ok.
no KreO q Se cOnFunDan.

UltImA cOsa: lAs nOtAs cOn AsTerisCo(*) tIenEN qUe toCarlas MaS sUaves
o SeA q TieNe q sEr mEnor El sOnIdO q el nOrMal.
lAs nOtAS cOn eL sIgNo mAs(+) tieNeN q tOcArsE rÁpidAmEnTe.

iNtRo:
       Bb                   Eb
6-|----0-----------------------------|
5-|----2-----------------------------|
4-|----2-----------------------------|
3-|----1--------2--4--1--4--8-8--6---|
2-|-0--0-----------------------------|
1-|----0--0--0--2--4--0--4--7-7--5---|

             Bb        F        Bb
6-|----------4------------------4----------|
5-|-4--2--0------0--4--2----0--------------|
4-|----------------------------------------|
3-|-------------------------------1---1----|
2-|-----------0*--------0*---0*--0-0-0-0---|
1-|-5--4--2--0---2--5--4----2---0---0---0--|

                                            Eb
6-|----------------------------------------------------------------|
5-|----------------------------------------------------------------|
4-|-------------------------------2---------------------7+---------|
3-|-1--2--3-----3----------------1---------------------6+----------|
2-|---------0--2--0-0--2--4-----0---------------------5+-----------|
1-|-------------------------2--0----1-2-4/7-7-7-7-7-5------5-7-8-9-|

             Bb        F              Bb
6-|----------4------------------4-----------||
5-|-4--2--0------0--4--2----0---------------||
4-|-----------------------------------------||
3-|-------------------------------1---1-----||
2-|-----------0*--------0*---0*--0-0-0-0----||
1-|-5--4--2--0---2--5--4----2---0---0---0---||

 Bb                        Cm
Loor A ti MI Dios en esta noche    (aDoRNo 1)
    F                         Bb
por todas las bondades de este día  (aDorNo 2)
                             Eb
Oh guárdame que tus potentes alas,
         Bb           F     Bb
sean por siempre la defensa mía.    (aDoRnO 2)

  Bb                        Cm
De cuantas faltas hoy he cometido    (adOrNo 1)
    F                        Bb
contigo, con el prójimo y conmigo     (aDoRnO 2)
                              Eb
perdóname mi Dios por tu Hijo Amado
             Bb           F        Bb
y haz que mi sueño pueda ser tranquilo.

(aQui vA eL inTrO oTrA vEz) y dEspUEs:

 Bb                          Cm
Enseñame a vivir que no me espante      (aDoRNo 1)
    F                         Bb
la tumba más que el lecho del reposo   (aDoRnO 2)
                           Eb
enséñame a morir para que pueda
          Bb            F       Bb
el día del juicio despertar glorioso.  (aDoRnO 2)

  Bb                     Cm
Y pueda reposar en ti mi vida           (aDoRNo 1)
     F                           Bb
mis párpados los cierre un dulce sueño  (aDoRnO 2)
                              Eb
un sueño en que vigor puedas prestarme,
        Bb             F        Bb
para servirte al despertar mi sueño.

       Bb                      Cm        F                        Bb
6-|----0--------------------------------------------------------------|
5-|----2--------------------------------------------------------------|
4-|----2---------------4--6--4--3--2----------------------------------|
3-|----1-------2--4--1------------------2--2--2-4-6--2--1--4--2--1-1--|
2-|-0--0---------------4--5--4--3--2--0-------------------------------|
1-|----0--0-0--2--4--0------------------2--2--2-4-5--2--0--4--2--1-0--|


                                            Eb
6-|----------------------------------------------------------------|
5-|----------------------------------------------------------------|
4-|-------------------------------2---------------------7+---------|
3-|-1--2--3-----3----------------1---------------------6+----------|
2-|---------0--2--0-0--2--4-----0---------------------5+-----------|
1-|-------------------------2--0----1-2-4/7-7-7-7-7-5------5-7-8-9-|


             Bb        F              Bb
6-|----------4------------------4-----------||
5-|-4--2--0------0--4--2----0---------------||
4-|-----------------------------------------||
3-|-------------------------------1---1-----||
2-|-----------0*--------0*---0*--0-0-0-0----||
1-|-5--4--2--0---2--5--4----2---0---0---0---||


 Bb                          Cm
Enseñame a vivir que no me espante      (aDoRNo 1)
    F                         Bb
la tumba más que el lecho del reposo   (aDoRnO 2)
                           Eb
enséñame a morir para que pueda
          Bb            F       Bb
el día del juicio despertar glorioso.  (aDoRnO 2)

  Bb                     Cm
Y pueda reposar en ti mi vida             (aDoRNo 1)
     F                           Bb
mis párpados los cierre un dulce sueño  (aDoRnO 2)
                              Eb
un sueño en que vigor puedas prestarme,
        Bb             F        Bb    Eb         Bb
para servirte al despertar mi sueño ooooooooh  ooooh.

AdOrnOs qUE vAn eN mEdIO dEl cAntO:

aDoRNo 1:

2-|--0--2--4------------||
1-|----------0--2--4-5--||

aDoRNo 2:

3-|--------3---2--1h2h1--||
2-|---2--0---0-----------||
1-|-0--------------------||

wEnO pZ
eSe eS tOdO eL cAnTo oJalA lEs sIrvA.
heY xFa hay vOtaN cOn uN 10 pOrQ eSte CantO sI mE cOstO aUnqUe nO eSTa
tAn pErfEctO cOmO El cD pErO sE lE pArEce.
No CreAn Q eL VoTo eS PaRa mi jActanCia sIno PorQ siEmpRe eLimInAn mIs
cAnTos pOr fAlTa dE vOtOs. tHanks.

SaLuDos a lA iGleSiA emBaJaDoReS dE CRiSTo QuEBRaDa SeCa
eN PuerTo BarRios en gUaTemAlA.

cUAlqUIEr cOsA: marvillagran@hotmail.es eScrIbAnmE xFa.

Que Dios derrame Bendiciones sobre cada uno.
Envía el tono de "Loor a tí mi Dios" a tu celular/móvil
Este fichero es trabajo propio de su transcriptor y representa su interpretación personal de la canción. El material contenido en esta página es
para exclusivo uso privado, por lo que se prohibe su reproducción o retransmisión, así como su uso para fines comerciales.
© LaCuerda.net · Aviso Legal · Privacidad