Tablatura para Guitarra de Los Voceros de Cristo: Escogido fui de Dios
Conexión · Inscripción
Letras y Acordes
Pantalla Completa
Imprimir
Versión Texto
Añadir Favorito
Otras Versiones

Mostrar Diagramas
Desfile Automático
Manipular Acordes
Formato del Texto

Los Voceros de Cristo
Escogido fui de Dios(TAB)
calidad:
vdcr0181
AUTOR: Los Voceros de Cristo  corregir
ALBUM: Concierto 30 años
Enviado por Wilber
TRANSCRIPCIÓN POR: Wilber Martínez

voten por este hermoso cantico que es de mucha bendición
para todos nosotros hermanos.

las cuerdas están enumeradas desde la mas aguda a la mas grave

6:-E - A:La mas Grave
5:-A - E
4:-D - C
3:-G - G
2:-B - D
1:-e - a:La mas aguda

Espero no se confundan.

El Requinto se afina en "A"

En la versión de 1974 el Requinto y la Guitarra
llevan capo en el "1er" traste
y en la versión de 2008, 30 años no lleva capo


Introducción:
                        C
6-|------------------------------------------|
5-|---------------------8--------------------|
4-|-2----3--5--5--5--4------7----5--3-2--1-0-|
3-|------------------------------------------|
2-|------------------------------------------|
1-|---3--5--7--7--7--8--10----8--7--5-3--2-1-|

           Bb             C                        F
6-|-----------------------------------------------------------|
5-|---------------------------------------2---2-----------3---|
4-|-0--2--3---3---3---2---5---5---5---3-----------3---2-------|
3-|-----------------------------------------------------------|
2-|-----------------------------------------------------------|
1-|-1--3--5-5-5-5-5-5-3-3-7-7-7-7-7-7-5-5-3-3-3-3-5-5-3-3-0---|

    F                                                   C
6-|--------------------------------------------------------------|
5-|--------------------------------------------------------------|
4-|--------------------------------------------------------------|
3-|------------0--------0-----------7-5-7------------------------|
2-|-----------1-------0---------8-5--------5-8---------8---------|
1-|-0-1-2-3-0-----5-3-------8-5----------------5-8-7-5---5-6-7-3-|

                                                       F
6-|-------------------3----------------------------------------------|
5-|--------------5-2----0-2-3-4--------------------------------------|
4-|---------5-3-----------------0-2-3----------------------------3-2-|
3-|------4----------------------------0-2-4-------------------2-0----|
2-|-6-3-------------------------------------1-2-3------ 3-1-0--------|
1-|-----------------------------------------------0-1pO--------------|

6-|-----------||
5-|---------3-||
4-|--2------2-||
3-|-0--0----0-||
2-|---1--1--1-||
1-|-----0-3-3-||

  F                         C
Escogido fui de Dios en el amado (Adorno “1”)
                                         F
en lugares celestiales su protección me dio (Adorno “2”)
                                  C
antes de la creación el plan fue hecho (Adorno “1”)
        Bb     C    F
por su santa voluntad. (Adorno “3”)

Coro:

    F                                   C
Escondido en Cristo estoy nada me apartará
        Bb             C                    F
ni la fuerzas de este mundo no me podrán dañar
                              C
vivo y ando en esta vida con seguridad
        Bb     C      F
porque me escogió mi Dios. (Adorno “3”)

Se Repite Toda La Introducción:

       F                        C
Me escogió para alabanza de su gloria (Adorno “1”)
                                          F
y sentomé en las alturas con Cristo mi Señor (Adorno “2”)
                                     C
grande fue la admiración al ver su gracia (Adorno “1”)
       Bb      C       F
cuando me escogió mi Dios. (Adorno “3”)

Coro:

  F                                   C
Escondido en Cristo estoy nada me apartará
       Bb              C                  F
ni la fuerzas de este mundo no me podrán dañar
                              C
vivo y ando en esta vida con seguridad
        Bb     C       F
porque me escogió mi Dios. (Adorno “3”)

Se Repite Toda La Introducción:

       F                        C
Tengo un sello que el espíritu me ha dado (Adorno “1”)
                                        F
cuando mi confianza puse solo en mi Salvador (Adorno “2”)
                                   C
sello que el Señor me dio de vida eterna (Adorno “1”)
    Bb     C      F
escogido fui de Dios.  (Adorno “3”)

Coro:

  F                                   C
Escondido en Cristo estoy nada me apartará
       Bb              C                  F
ni la fuerzas de este mundo no me podrán dañar
                                   C
vivo y ando en esta vida con seguridad
       Bb      C            F
porque me escogió mi Dios.


(Adorno: “1”)

6-|--------------------||
5-|--------------------||
4-|------------------5-||
3-|-------------5--2---||
2-|-------5--3---------||
1-|-5--3---------------||

(Adorno: “2”)

6-|-------------------||
5-|-------------------||
4-|-------------------||
3-|----------5---0--2-||
2-|--------5---0------||
1-|-5--3--------------||

(Adorno: “3”)

6-|---------||
5-|---------||
4-|--2------||
3-|-0--0----||
2-|---1--1--||
1-|-----0-3-||

La introducción esta al 100%.
Los adornos están a un 90%.

bueno hermanos este es todo el himno espero les sirva
y les sea de mucha bendición.

QUE DIOS LES BENDIGA

pueden pedirme cánticos en la siguiente dirección:

Facebook: wilber12091992@hotmail.es
  E-mail: wilber12091992@hotmail.es
Envía el tono de "Escogido fui de Dios" a tu celular/móvil
Este fichero es trabajo propio de su transcriptor y representa su interpretación personal de la canción. El material contenido en esta página es
para exclusivo uso privado, por lo que se prohibe su reproducción o retransmisión, así como su uso para fines comerciales.
© LaCuerda.net · Aviso Legal · Privacidad