Tablatura para Guitarra de Villancicos: En lo alto gloria
Conexión · Inscripción
Letras y Acordes
Pantalla Completa
Imprimir
Versión Texto
Añadir Favorito
Otras Versiones

Mostrar Diagramas
Desfile Automático
Manipular Acordes
Formato del Texto

Villancicos
En lo alto gloria(TAB)
calidad:
vill0321
AUTOR: Villancicos  corregir
ALBUM: desconocido
Enviado por arturo
saludos a juarez y el paso Tx
espero y les guste se oye igualita 
nomas agarrenle el ritmo
bueno saludos a Erika Yanine Rodrigez
y  a Paola Pagallanes que las quiero un buen 



E-------------------------------------------------------
B-------------------------------------------------------
G---4-4-4-7-7-5-4-4---4-7-4-----------------------------
D-------------------7-------7-5-------------------------
A-------------------------------------------------------
E-------------------------------------------------------


E-------------------------------------------------------
B-------------------------------------------------------
G---4-4-4-7-7-5-4-4---4-7-4-----------------------------
D-------------------7-------7-5-------------------------
A-------------------------------------------------------
E-------------------------------------------------------


E-------------------------------------------------------
B----5--------------------------------------------------
G--7---7-5-4-5-7-5-4--4-5-4---------------4-5-4---------
D--------------------7------7-5-7-----5-7-------7-------
A---------------------------------5-5-------------------
E-------------------------------------------------------
Envía el tono de "En lo alto gloria" a tu celular/móvil
Este fichero es trabajo propio de su transcriptor y representa su interpretación personal de la canción. El material contenido en esta página es
para exclusivo uso privado, por lo que se prohibe su reproducción o retransmisión, así como su uso para fines comerciales.
© LaCuerda.net · Aviso Legal · Privacidad