Letra y Acordes de Victor Yturbe: Yo lo comprendo
Conexión · Inscripción
Letras y Acordes
Pantalla Completa
Imprimir
Versión Texto
Añadir Favorito
Otras Versiones

Mostrar Diagramas
Desfile Automático
Manipular Acordes
Formato del Texto

Victor Yturbe
Yo lo comprendo
calidad:
vitu0112
AUTOR: (dino Ramos/roberto Cantoral)
ALBUM: desconocido
Enviado por francisco
Intro:
   C        Em   C         Em      Dm       G7   Dm        G7
e-----3--------|----3------------|----5--------|----5----------------
B--1-----1---0-|-1-----1---0-----|-3-----3-----|-3-----3-------------
G--------------|---------------2-|-----------5-|-----------5--4---5--
D--------------|-----------------|-------------|---------------------
A--------------|-----------------|-------------|---------------------
E--------------|-----------------|-------------|---------------------
                   C     Dm
Que has dejado de amarme
               Em      
y no sientes besarme
           Dm    G7
yo lo comprendo
           Dm      Dm-maj7
que de mi te cansaste
         Dm7            G7
que otro amor encontraste
           C-Am-Dm-G7
yo lo comprendo

                  C     Dm
Porque todo en la vida
                Em     
aunque se que lastima
              Dm       G7
lo que empienza termina
             Dm
y no tengo derecho
   Dm-maj7            Dm7
de engrillarte a mi lecho
                     G7
aunque sangre mi herida

C                    Dm
Haces bien en marcharte
              Em      
para que complicarte
    Dm         G7
yo lo comprendo
      Dm
se feliz en tu anhelo
                 E7
si cambiaste de cielo
    Am        Gm  C7
yo lo comprendo

F
Pero como le explico
       Fm
a mi corazon
            C            Dm
cuando extrañe en las noches
            Em    
tu piel, tu voz
     Dm
y latiendo pregunte
          G7
por que razon
                C     Gm   C7
tu de mi te alejaste

F
Pero como le explico
       Fm
a mi corazón
         C         Dm
mi vergüenza de verte
          Em    
con otro amor
             Dm
que te dio lo que ya
             G7
no te diera yo
                  C
que falle como amante

Intermedio:
   C        Em   C         Em      Dm       G7   Dm        G7
e-----3--------|----3------------|----5--------|----5-------------
B--1-----1---0-|-1-----1---0-----|-3-----3-----|-3-----3----------
G--------------|---------------2-|-----------5-|-----------5--4---
D--------------|-----------------|-------------|------------------
A--------------|-----------------|-------------|------------------
E--------------|-----------------|-------------|------------------


F
Pero como le explico
       Fm
a mi corazón
         C         Dm
mi vergüenza de verte
          Em   
con otro amor
             Dm
que te dio lo que ya
             G7
no te diera yo
                C Em C Em C Em Cmaj
que falle como amanteeeee
Envía el tono de "Yo lo comprendo" a tu celular/móvil
Este fichero es trabajo propio de su transcriptor y representa su interpretación personal de la canción. El material contenido en esta página es
para exclusivo uso privado, por lo que se prohibe su reproducción o retransmisión, así como su uso para fines comerciales.
© LaCuerda.net · Aviso Legal · Privacidad