Tablatura para Guitarra de Victor Velázquez: La Primavera
Conexión · Inscripción
Letras y Acordes
Pantalla Completa
Imprimir
Versión Texto
Añadir Favorito
Otras Versiones

Mostrar Diagramas
Desfile Automático
Manipular Acordes
Formato del Texto

Victor Velázquez
La Primavera(TAB)
calidad:
vvel0011
AUTOR: Victor Velázquez  corregir
ALBUM: desconocido
Enviado por Matias
(Milonga)

Notacion:
---------

 ^ = Notas ligadas
 / = Deslizar nota
 * = Armonicos
 | = Notas tocadas al mismo tiempo


- Introduccion -


--7^9^10--10^9^7--12------12^10^9--7------------------------------------
-----------------------------------------------8^7^8-----5^4^5----------
------------------------------------------------------------------------
------------------------------------------------------------------------
------------------------------------------------------------------------
------------------------------------------------------------------------

                               
-----3-----------2------------------0-----------------------------------
----2-----------1------------------0------------------------------------
---3-----------2------------------0-------------------------------------
--2-----------1------------------2--------------------------------------
-0-----------0------------------2---------------------------------------
-------------------------------0----------------------------------------


- Fin introduccion -


---0-----0------------0-----0----------8-----8----------5-----5---------
-----0------------------0-----0---0------7-----7----------4-----4-------
-------0------------------0-----0----------8----------------5-----------
-9---------12-11-10-9----------------7------------7-5-4-----------------
------------------------------------------------------------------------
------------------------------------------------------------------------


-------2-------5-------0-----0---------0-----0------------0-----0-------
---------1-------4-------0-----0---------0------------------0-----0---0-
-------------------------------------------0------------------0-----0---
-4-2-1-----2-4-----1-2-----------2/9-9---------12-11-10-9---------------
------------------------------------------------------------------------
---------------------------0--------------------------------------------


---7-----7-----------5-----5-----5----5------7^5--7^5----3-----5^3-5^3--
-----6-----6-----------5-----5----------5----|----|--------5---|---|----
-------7-----7-----------5-----5----------5--|----|----------4-|---|----
-6-------------5^6^7-------------------------7----7------------5---5----
------------------------------------0-----------------------------------
-------------------------------------------------------0----------------


---2-----3^2-3^2-----0-----3^0-------0-------0-------0-----0-----0------
-----4---|---|---------0-------0-------1-------1-------0-----0----------
-------2-|---|-----------0-------0-------2---------------0-----0--------
---------4---4-------------------------------------------|-----|--------
-2---------------------------------0-------3-----0-2-----2-----2--------
------------------0-----------------------------------------------------


--------------------0-----0----7-8-9-10--------13------10-----8------8--
----------------------0-----------------9------|--12---|--9-----10------
---0---0---0---0--------0-----------------10---|-------|-----------9----
-4---5---7---4-------------------------------9-12------9----------------
-|---|---|---|----------------------------------------------0-----------
-2---3---5---2---0------------------------------------------------------


-5^6^7-8--------11-----8-----7-----7-------------7-----------7-8-7------
---------7------|--10--|-7-----8-------7^8^9^10----8----------------10--
-----------8----|------|---------9-------------------9------------------
-------------7--10-----7-------------------------------10-9-------------
------------------------------------------------------------------------
---------------------------0--------------------------------------------


---------------------------------------0------------8---------5---------
-----7--10-----10-8-7-5-4-5-7-4-5----0---0---0--------10--------7-------
---8-----------|--|-|-|-|-|-|-|-|----0-----0----------------------------
-9-----------9-10-9-7-5-4-5-7-4-5----|---------5/10------10-7-----7-9---
-------------------------------------|----------------------------------
-------------------------------------0----------------------------------


-7-------3-------5-------2-------3-----3------------8---------5---------
---8-------5-------7-------4-------5-----5------------10--------7-------
------------------------------------------------------------------------
-----9-5-----5-7-----7-4-----4-5------------2/10-10------10-7-----7-9---
------------------------------------------------------------------------
-------------------------------------0----------------------------------


-7-------3-------5-------2-------3-----3-----3----0------0------0-------
---8-------5-------7-------4-------5-----5----------0------0------------
------------------------------------------------------------------------
-----9-5-----5-7-----7-4-----4-5-----------5----------------------------
-------------------------------------------------------2----------------
-------------------------------------0----------0-------------4---------


-------------------------------------------------------0-3^0------------
---1-----1----------3-----3-5-3-1-0------------------0-------0----------
-----2----------------5---|-|-|-|-|----------------0-----------0--------
-------2----------0-----4-4-5-4-2-0-------------------------------------
-0----------0-2-3---------------------------0-1-2-----------------------
------------------------------------------3-----------------------------


---2-------5-------3-------2-------0-----0---------0-----0--------------
-----1-------4-------2-------1-------0-----0---------0------------------
-------2-------5-------3-------2-------0---------------0----------------
-1-------4-------2-------1-------2-----------2/9-9---------12-11-10-9---
------------------------------------------------------------------------
------------------------------------------------------------------------


-0-----0----------8-----8----------5-----5---------
---0-----0---0------7-----7----------4-----4-------
-----0-----0----------8----------------5-----------
----------------7------------7-5-4-----------------
---------------------------------------------------
---------------------------------------------------


-------2-------5-------0-----0---------0-----0------------0-----0-------
---------1-------4-------0-----0---------0------------------0-----0---0-
-------------------------------------------0------------------0-----0---
-4-2-1-----2-4-----1-2-----------2/9-9---------12-11-10-9---------------
------------------------------------------------------------------------
---------------------------0--------------------------------------------


---7-----7-----------5-----5-----5----5------7^5--7^5----3-----5^3-5^3--
-----6-----6-----------5-----5----------5----|----|--------5---|---|----
-------7-----7-----------5-----5----------5--|----|----------4-|---|----
-6-------------5^6^7-------------------------7----7------------5---5----
------------------------------------0-----------------------------------
-------------------------------------------------------0----------------


---2-----3^2-3^2-----0-----3^0-------0-------0-------0-----0-----0------
-----4---|---|---------0-------0-------1-------1-------0-----0----------
-------2-|---|-----------0-------0-------2---------------0-----0--------
---------4---4-------------------------------------------|-----|--------
-2---------------------------------0-------3-----0-2-----2-----2--------
------------------0-----------------------------------------------------


---------------------------0------12*------------------0----------------
-------------------------0---7-8--12*-----------------0-----------------
---0---0---0---0-------0----------12*----------------0------------------
-4---5---7---4-------2------------------------------2-------------------
-|---|---|---|-----2-------------------------------2--------------------
-2---3---5---2---0--------------------------------0---------------------

* FIN *

Espero que disfruten de esta hermosa pieza y no duden en hacer llegar
cualquier comentario, sera bienvenido.

Transcripccion y adaptacion  : Matias Norese
Contacto E-mail              : Percha21@Ciudad.com.ar

Agradecimientos a Marcelo Corti y Diego Soria Mendoza por su
atenta colaboraci¢n.
Envía el tono de "La Primavera" a tu celular/móvil
Este fichero es trabajo propio de su transcriptor y representa su interpretación personal de la canción. El material contenido en esta página es
para exclusivo uso privado, por lo que se prohibe su reproducción o retransmisión, así como su uso para fines comerciales.
© LaCuerda.net · Aviso Legal · Privacidad